Reset - Concern
Submitted By: hardcore junk
EMail: [email protected]


Riff C 
G------------5-4--------------7-6-------------------------------- 
D-----2-4-5>-----5-----4-5-7>-----7------------------------------ 
A--2>---------------5>------------------------------------------- 
E---------------------------------------------------------------- 

Play the riff C another time 

Riff D 
G-----------2-------4-------------------------------------------- 
D----4----0---0---2---2------------------------------------------ 
A--2---2------------------0-0-0-0-------------------------------- 
E---------------------------------------------------------------- 

Play the riff D one more time 

Riff D2 
G---------------------------------------------------------------- 
D------0>--2>---------------------------------------------------- 
A--2>----------0-0-0-0------------------------------------------- 
E---------------------------------------------------------------- 

Then, play : 
Riff D 
Riff D2 
Riff D 

Riff C, 2 X 
Riff B, 2 X, start at the dotted line for the second one 

Now, there is only guitar 

enter with the riff B at the end of the guitar riff 

Riff E 

G---------------2-1---------------------------------------------- 
D-----0>----2>------2-------------------------------------------- 
A--2>----0>------------------------------------------------------ 
E---------------------------------------------------------------- 

Play the riff E three more times 
Finally, play the riffs C2 and C . 

             ---------------------------------------- -------------------------------------------------------------------------------  CONCERN - Reset  
G|-------------------------------------------------------------------------|  
D|-------------------------------------------------------------------------|                            
A|-22222--------------------5555555----------------------------------------|                
E|----------0-2---333333------------------2-3--55555555--------------------|                              

this concern in country wich means ....  

G|-------------------------------------------------------------------------|  
D|-------------------------------------------------------------------------|                            
A|-22222-----------55555---------------------------------------------------|                             
E|---------33333------------555555-----------------------------------------|                                                                                    

juste la guitare avant ca                                                                                   

G|-------------------------------------------------------------------------|  
D|-------------------------------------------------------------------------|                             
A|--22222---------------5--------------------------------------------------|                             
E|----------0-2-3333333----5-----------------------------------------------|                              

you listen to the news your witness of ........ just seat there.....  

G|-------------------------------------------------------------------------|  
D|-------------------------------------------------------------------------|                             
A|--22222---55555----77777-------------------------------------------------|  
E|-------------------------------------4--4--4--4--------------------------|                                                                                    

G|-------------------------------------------------------------------------|  
D|-------------------------------------------------------------------------|                             
A|--22222---55555----------------------------------------------------------|  
E|----------------------555555---------00-5-0------------------------------|


Текст, аккорды и табулатура для песни "Concern", исполняет "Reset".
Используемые в песне аккорды можно найти в разделе Как брать аккорды. Аккорды для шестиструнной гитары. Другие песни можно найти на нашем сайте, воспользовавшись алфавитным указателем вверху страницы.


 
Ошибка в тексте? Выделите ошибку и нажмите Ctrl+Enter