What have you been doing lately by Relient K
Standard Tuning

(Intro)
G:-------------------
D:----7-6-4----------  X2
A:-----------7-5-4---
E:-5----------------7

(Second Riff)
G:-----------------------
D:------------5-5-5-2-2-2
A:2-2-2-5-5-5------------
E:-----------------------

Intro Riff X2
Second Riff X1

(Third Riff)
G:------------------
D:-7----------------  X2
A:----7--5---5-5-5-5
E:------------------

(Fourth Riff)
G:---------------------------------
D:-7-7-7-7-------------------------
A:---------7-7-7-7--5-5-5-5-5-5-5-5
E:---------------------------------

(Fifth Riff)
G:----------
D:----------  X2
A:5--7--9---
E:---------5

(Sixth Riff)
G:----------------------------------------------
D:----------------------------------------------
A:5-5-5-5--7-7-7-7--9-9-9-9-----------5-5-5-5--7
E:---------------------------5-5-5-5------------

Intro Riff X2
Second Riff X1
Intro riff X2
Second Riff X1
Third Riff X2
Fourth Riff X2
Fifth Riff X2
Sixth Riff X1

(Seventh Riff)
G:---------------------------------------
D:------------------6-6-6-6--7-7-7-7--7-6
A:-0-0-0-0--5-5-5-5----------------------
E:---------------------------------------

(Eighth Riff)
G:---------------------
D:---------------------  X2
A:-9-9-9-9-9-9-9-9--7-7
E:---------------------

Seventh Riff X1
Eighth Riff X1
Seventh Riff X1
Eight Riff X1
First Riff X2
Second Riff X1
First Riff X2
Second Riff X1
Seventh Riff X1
Eighth Riff X2 
Seventh Riff X1
Eighth Riff X1
Seventh Riff X1
Eighth Riff X2

Thanks, please rate after you learn it.
Tabbed by:
_TheBassist01_


Текст, аккорды и табулатура для песни "What Have You Been Doing Lately", исполняет "Relient K".
Используемые в песне аккорды можно найти в разделе Как брать аккорды. Аккорды для шестиструнной гитары. Другие песни можно найти на нашем сайте, воспользовавшись алфавитным указателем вверху страницы.


 
Ошибка в тексте? Выделите ошибку и нажмите Ctrl+Enter