hey wut^ this is an awesome song by an awesome band and i hope
u like my tab on it IT IS RIGHT (except for maybe the chorus)

              Intro*

E ----------------------------------------
B ----------------------------------------
G 556555655---5---------8----------------- X4
D ---------666-666667666-5565556----------    
A ----------------------------------------
E ----------------------------------------

              Verse
              
E ----------------------------------------
B ----------------------------------------
G -----666-----------88888888-------------
D 333--666--66666666-88888888-------------
A 333--444--66666666-66666666-------------
E 111-------44444444---------------------- 

              Verse

E ----------------------------------------
B ----------------------------------------
G ---------66666666----------88888888-----
D 33333333-66666666-66666666-88888888----- X2
A 33333333-44444444-66666666-66666666-----
E 11111111----------44444444--------------

            Pre-Chorus

E ----------------------------------------
B ----------------------------------------
G -----------6----------------------------
D ---3------6------6---5x5x5x5x5x5x5x5x/3-
A --3------4------6----5x5x5x5x5x5x5x5x/3-
E -1-------------4-----3x3x3x3x3x3x3x3x/1-

              Chorus
E ----------------------------------------
B ----------------------------------------
G ---1----6-6---5-6-6--------------------- (it varies how many times 
D --3-3--6------6-6-6---5-6-5-5-6---------       you play it)
A -3----4------6--------------------------
E 1-----------4--------3------------------
              
        Little solo thingy
E -------------------------------------------------
B -------------------------------------------------
G -13-13-13-13-13-13-13-13/15-15-15-15-15-15-15-15-
D --x--x--x--x--x--x--x--x/-x--x--x--x--x--x--x--x-
A -11-11-11-11-11-11-11-11/13-13-13-13-13-13-13-13-
E -------------------------------------------------

E -------------------------------------------------
B -------------------------------------------------
G /17-17-17-17-17-17-17-17/12-12/13/12-12-12/13----
D /-x--x--x--x--x--x--x--x/-x--x/-x/-x--x--x/-x----
A /15-15-15-15-15-15-15-15/10-10/11/10-10-10/11----
E -------------------------------------------------

* rythm guitar play the verse part on the intro.

Ok thats it listen to the song to get the rythms.


Текст, аккорды и табулатура для песни "Softer To Me", исполняет "Relient K".
Используемые в песне аккорды можно найти в разделе Как брать аккорды. Аккорды для шестиструнной гитары. Другие песни можно найти на нашем сайте, воспользовавшись алфавитным указателем вверху страницы.


 
Ошибка в тексте? Выделите ошибку и нажмите Ctrl+Enter