Pressing on by Relient K
Standard Tuning

(Intro)
G:-------------|
D:-------------|  x3
A:4------------|
E:----4---6---2|

G:-------------|
D:-------------|  x4
A:-------------|
E:9---8---6---2|

G:--------------------------------|
D:--------------------------------|
A:4-6-6--4-4-6-6--4---------------|
E:------------------1-2-2--1-1-2-2|

G:------------------------------------|
D:------------------------------------|
A:4-----4-6-6--4-4-6-6----------------|
E:---4------------------1-2-2--1-1-2-2|

(Chorus)
G:-------------|      |--------|
D:-------------|  x4  |--------|
A:4------------|      |--------|
E:----4---6---2|      |2------4|

Intro x1

G:--------------------------------|
D:--------------------------------|
A:4-6-6--4-4-6-6--4---------------|
E:------------------1-2-2--1-1-2-2|

G:------------------------------------|
D:------------------------------------|
A:4-----4-6-6--4-4-6-6----------------|
E:---4------------------1-2-2--1-1-2-2|

Chorus x4

G:--------|
D:--------|
A:--------|
E:2------4|

Chorus x2

(Guitar)

G:-------------|
D:-------------|  
A:4------------|
E:----4---6---2|

Chorus x3
G:--------|
D:--------|
A:--------|
E:2------4|

Chorus x4
G:--------|
D:--------|
A:--------|
E:2------4|

G:------------------------------------------------|
D:------------------------------------------------|
A:4(16)----------------------4-------------------4|
E:------2-2-2-2--1/4-4-4-4-6---2-2-2-2-1/4-4-4-4--|

G:----------------------|
D:----------------------|
A:------------------4(8)|
E:2(8)--4(8)--6(8)------|

(Outro)
G:--------|
D:--------|
A:-------4|
E:2---4---|

Thanks, please rate it after you learn it.
Tabbed by:
_TheBassist01_


Текст, аккорды и табулатура для песни "Pressing On", исполняет "Relient K".
Используемые в песне аккорды можно найти в разделе Как брать аккорды. Аккорды для шестиструнной гитары. Другие песни можно найти на нашем сайте, воспользовавшись алфавитным указателем вверху страницы.


 
Ошибка в тексте? Выделите ошибку и нажмите Ctrl+Enter