Proudly Brought To You By: X-Red
Questions? Comments? Complaints? Email me at: [email protected]
Artist: Relient K
Song Pressing On (from their album The Anatomy of the Tongue in Cheek)
Tuning: Standard (EADGBE)
Tab Key:
~  = Palm Mute
/  = Slide
*  = Let Ring
#) = Alternate fingering

Intro
Guitar 1 [*Play this 4 times*]
e|--------------------------------------------------|
B|--------------------------------------------------|
G|--------------------------------------------------|
D|-----3h4-----3-1-----3h4-----3-1------------------|
A|-4-4-------------1-1------------------------------|
E|---------4-4-------------2-2----------------------|

Guitar 2 [*Starts after Guitar 1 plays intro 1 time, Play this 3 times*]
e|--------------------------------------------------|
B|--------------------------------------------------|
G|--------------------------------------------------|
D|-6------------------------------------------------|
A|-4----6----8----4---------------------------------|
E|------4----6----2---------------------------------|

Verse
Guitar 1 & Guitar 2 (Play at same time) [*Play this 3 times*]
e|--------------------------------------------------|
B|--------------------------------------------------|
G|--------------------------------------------------|
D|-6~~~~--------------------------------------------|
A|-4~~~~6~~~~8~~~~4~~~~-----------------------------|
E|------4~~~~6~~~~2~~~~-----------------------------|

Guitar 1 [*Play this 1 time]
e|--------------------------------------------------|
B|--------------------------------------------------|
G|--------------------------------------------------|
D|-6-6-6-6------------------------------------------|
A|-4-4-4-4-6-6-6-6-8-8-8-8-4-4-4-4------------------|
E|---------4-4-4-4-6-6-6-6-2-2-2-2------------------|

Guitar 2 [*Play this 1 time with a combination of upstrokes and downstrokes*]
e|--------------------------------------------------|
B|--------------------------------------------------|
G|--------------------------------------------------|
D|-66666666-----------------------------------------|
A|-44444444666666668888888844444444-----------------|
E|---------444444446666666622222222-----------------|

Guitar 1 [*Play this 1 time while Guitar 2 rests*]
e|--------------------------------------------------|
B|--------------------------------------------------|
G|-6/8-8--6/8-8--8/10-10--8/10-10-------------------|
D|-6/8-8--6/8-8--8/10-10--8/10-10-------------------|
A|-4/6-6--4/6-6--6/-8--8--6/-8--8-------------------|
E|--------------------------------------------------|

Guitar 2 [*Rests as Guitar 1 plays the tab above*]

Guitar 1 [*Play this 1 time*]
e|--------------------------------------------------|
B|--------------------------------------------------|
G|------------------6/8-8--6/8-8--8/10-10--8/10-10--|
D|-6-6-6-6----------6/8-8--6/8-8--8/10-10--8/10-10--|
A|-4-4-4-4-6-6-6-6--4/6-6--4/6-6--6/-8--8--6/-8--8--|
E|---------4-4-4-4----------------------------------|

Guitar 2 [*Play this 1 time*] 
e|--------------------------------------------------|
B|--------------------------------------------------|
G|--------------------------------------------------|
D|-6-6-6-6------------------------------------------|
A|-4-4-4-4-6-6-6-6-8-8-8-8-4-4-4-4------------------|
E|---------4-4-4-4-6-6-6-6-2-2-2-2------------------|

Guitar 1 & Guitar 2 (Play at same time) [*Play this 1 time*]
e|--------------------------------------------------|
B|--------------------------------------------------|
G|--------------------------------------------------|
D|-6-6-6-6------------------------------------------|
A|-4-4-4-4-6-6-6-6-4-4-4-4-6-6-6--------------------|
E|---------4-4-4-4-2-2-2-2-4-4-4--------------------|

Chorus
Guitar 1 & Guitar 2 (Add Variation of similar rhythm if you want) [*Play this 3 times*]
e|--------------------------------------------------|
B|--------------------------------------------------|
G|--------------------------------------------------|
D|-6-6----------------------------------------------|
A|-4-4-6-6-6-6-8-8-4-4-4-4--------------------------|
E|-----4-4-4-4-6-6-2-2-2-2--------------------------|

Guitar 1 & Guitar 2 (Play at same time) [*Play this 1 time*]
e|--------------------------------------------------|
B|--------------------------------------------------|
G|--------------------------------------------------|
D|--------------------------------------------------|
A|-4-4-4-4-6-6-6------------------------------------|
E|-2-2-2-2-4-4-4------------------------------------|

Verse
Guitar 1 & Guitar 2 (Play at same time) [*Play this 3 times*]
e|--------------------------------------------------|
B|--------------------------------------------------|
G|--------------------------------------------------|
D|-6~~~~--------------------------------------------|
A|-4~~~~6~~~~8~~~~4~~~~-----------------------------|
E|------4~~~~6~~~~2~~~~-----------------------------|

Guitar 1 [*Play this 1 time*]
e|--------------------------------------------------|
B|--------------------------------------------------|
G|--------------------------------------------------|
D|-6-6-6-6------------------------------------------|
A|-4-4-4-4-6-6-6-6-8-8-8-8-4-4-4-4------------------|
E|---------4-4-4-4-6-6-6-6-2-2-2-2------------------|

Guitar 2 [*Play this 1 time with a combination of upstrokes and downstrokes*]
e|--------------------------------------------------|
B|--------------------------------------------------|
G|--------------------------------------------------|
D|-66666666-----------------------------------------|
A|-44444444666666668888888844444444-----------------|
E|---------444444446666666622222222-----------------|

Guitar 1 [*Play this 1 time while Guitar 2 rests*]
e|--------------------------------------------------|
B|--------------------------------------------------|
G|-6/8-8--6/8-8--8/10-10--8/10-10-------------------|
D|-6/8-8--6/8-8--8/10-10--8/10-10-------------------|
A|-4/6-6--4/6-6--6/-8--8--6/-8--8-------------------|
E|--------------------------------------------------|

Guitar 2 [*Rests as Guitar 1 plays the tab above*]

Guitar 1 [*Play this 1 time*]
e|--------------------------------------------------|
B|--------------------------------------------------|
G|------------------6/8-8--6/8-8--8/10-10--8/10-10--|
D|-6-6-6-6----------6/8-8--6/8-8--8/10-10--8/10-10--|
A|-4-4-4-4-6-6-6-6--4/6-6--4/6-6--6/-8--8--6/-8--8--|
E|---------4-4-4-4----------------------------------|

Guitar 2 [*Play this 1 time*] 
e|--------------------------------------------------|
B|--------------------------------------------------|
G|--------------------------------------------------|
D|-6-6-6-6------------------------------------------|
A|-4-4-4-4-6-6-6-6-8-8-8-8-4-4-4-4------------------|
E|---------4-4-4-4-6-6-6-6-2-2-2-2------------------|

Guitar 1 & Guitar 2 (Play at same time) [*Play this 1 time*]
e|--------------------------------------------------|
B|--------------------------------------------------|
G|--------------------------------------------------|
D|-6-6-6-6------------------------------------------|
A|-4-4-4-4-6-6-6-6-4-4-4-4-6-6-6--------------------|
E|---------4-4-4-4-2-2-2-2-4-4-4--------------------|

Chorus
Guitar 1 & Guitar 2 (Add Variation of similar rhythm if you want) [*Play this 3 times*]
e|--------------------------------------------------|
B|--------------------------------------------------|
G|--------------------------------------------------|
D|-6-6----------------------------------------------|
A|-4-4-6-6-6-6-8-8-4-4-4-4--------------------------|
E|-----4-4-4-4-6-6-2-2-2-2--------------------------|

Guitar 1 & Guitar 2 (Play at same time) [*Play this 1 time*]
e|--------------------------------------------------|
B|--------------------------------------------------|
G|--------------------------------------------------|
D|--------------------------------------------------|
A|-4-4-4-4-6-6-6------------------------------------|
E|-2-2-2-2-4-4-4------------------------------------|

Guitar 1 & Guitar 2 (Play at same time) [*Play this 1 time*]
e|--------------------------------------------------|
B|--------------------------------------------------|
G|--------------------------------------------------|
D|-6-6----------------------------------------------|
A|-4-4-6-6-6-6-8-8-4-4-4-4--------------------------|
E|-----4-4-4-4-6-6-2-2-2-2--------------------------|

Guitar 1 & Guitar 2 (Play at same time) [*Play this 1 time*]
e|--------------------------------------------------|
B|--------------------------------------------------|
G|--------------------------------------------------|
D|-6-6----------------------------------------------|
A|-4-4-6-6-6-6-8-8-4--------------------------------|
E|-----4-4-4-4-6-6-2--------------------------------|

Intro
Guitar 1 [*Play this 4 times*]
e|--------------------------------------------------|
B|--------------------------------------------------|
G|--------------------------------------------------|
D|-----3h4-----3-1-----3h4-----3-1------------------|
A|-4-4-------------1-1------------------------------|
E|---------4-4-------------2-2----------------------|

Guitar 2 
  *Starts after Guitar 1 plays 1/2 time (at the chord 8-8-6)
  *Play this 3 times ()= Play only first half
e|--------------------------------------------------|
B|--------------------------------------------------|
G|--------------------------------------------------|
D|-(8----4)----6------------------------------------|
A|-(6----2)----4----6----8----4---------------------|
E|------------------4----6----2---------------------|

Guitar 1 & Guitar 2 (Play at same time) [*Play this 1 time*]
e|--------------------------------------------------|
B|--------------------------------------------------|
G|--------------------------------------------------|
D|-6****--------------------------------------------|
A|-4****-6****--4-4-4-4-6-6-6-----------------------|
E|-------4****--2-2-2-2-4-4-4-----------------------|

Guitar 1 & Guitar 2 (Play at same time) [*Play this 4 times*]
e|--------------------------------------------------|
B|--------------------------------------------------|
G|--------------------------------------------------|
D|-6-6----------------------------------------------|
A|-4-4-6-6-6-6-8-8-4-4-4-4--------------------------|
E|-----4-4-4-4-6-6-2-2-2-2--------------------------|

Guitar 1 & Guitar 2 (Play same time) [*Play this 1 time*]
e|--------------------------------------------------|
B|--------------------------------------------------|
G|--------------------------------------------------|
D|------------------6****---------------------------|
A|-4-4-4-4-6-6-6----4****---------------------------|
E|-2-2-2-2-4-4-4------------------------------------|

Interlude (Ending; Slow Part)
Guitar 1 (& Guitar 2 if you want) [*Play this 1 time*] 
e|--------------------------------------------------|
B|-6-6-6-6--6-6-6-6--6-6-6-5--8-8-8-5---------------|
G|--------------------------------------------------|
D|--------------------------------------------------|
A|--------------------------------------------------|
E|--------------------------------------------------|

Guitar 1 (& Guitar 2 if you want) [*Play this 1 time*]
e|--------------------------------------------------|
B|-6-6-6-5--6-6-6-5--6-6-6-6--6-6-6-6---------------|
G|--------------------------------------------------|
D|--------------------------------------------------|
A|--------------------------------------------------|
E|--------------------------------------------------|

Guitar 1 (& Guitar 2 if you want) [*Play this 1 time*]
e|--------------------------------------------------|
B|-6-6-6-5--6-6-6-5--6-6-6-5--8-8-8-5---------------|
G|--------------------------------------------------|
D|--------------------------------------------------|
A|--------------------------------------------------|
E|--------------------------------------------------|

Guitar 1 & Guitar 2 (Play at same time) [*Play this 1 time]
e|--------------------------------------------------|
B|--------------------------------------------------|
G|--------------------------------------------------|
D|---------------------6****------------------------|
A|-4****-----6****-----4****------------------------|
E|-2****-----4****----------------------------------|


Текст, аккорды и табулатура для песни "Pressing On", исполняет "Relient K".
Используемые в песне аккорды можно найти в разделе Как брать аккорды. Аккорды для шестиструнной гитары. Другие песни можно найти на нашем сайте, воспользовавшись алфавитным указателем вверху страницы.


 
Ошибка в тексте? Выделите ошибку и нажмите Ctrl+Enter