MARILYN MANSON ATE MY GIRLFRIEND - Relient K

By:Antwan [email protected]

Intro x4
e|-------10---11--10---------------------------------------------------------|
B|--8-8-----8---8----8-----11------10----------------------------------------|
G|---------------------8-8----8-7-7---7--------------------------------------|
A|---------------------------------------------------------------------------|
E|---------------------------------------------------------------------------|

after intro and used throughout song
e|---------------------------------------------------------------------------|
B|---------------------------------------------------------------------------|
G|---------------------------------------------------------------------------|
D|---------7777-5555--9--7---------------------------------------------------|
A|--5555---5555-3333--7--5---------------------------------------------------|
E|--3333---------------------------------------------------------------------|

Chorus All palm muted
e|---------------------------------------------------------------------------|
B|---------------------------------------------------------------------------|
G|---------------------------------------------------------------------------|
D|-555-555--777-777-----------777--------------------------------------------|
A|-333-333--555-555--555-555--555--------------------------------------------|
E|-------------------333-333-------------------------------------------------|

thats basically it


Текст, аккорды и табулатура для песни "Marilyn Manson Ate My Girlfriend", исполняет "Relient K".
Используемые в песне аккорды можно найти в разделе Как брать аккорды. Аккорды для шестиструнной гитары. Другие песни можно найти на нашем сайте, воспользовавшись алфавитным указателем вверху страницы.


 
Ошибка в тексте? Выделите ошибку и нажмите Ctrl+Enter