ok i am pretty sure this is right...this is a great band and a great song any
comments my email is [email protected]
Tuning: Standard
x-mute

Verse

      E           A           C#         B
e|----0-----|-----0-----|-----x-----|----x----|
B|----0-----|-----0-----|-----x-----|----x----|
G|----1-----|-----2-----|-----6-----|----4----|
D|----2-----|-----2-----|-----6-----|----4----|
A|----2-----|-----0-----|-----4-----|----2----|
E|----0-----|-----0-----|-----x-----|----x----|

THE CHORUS IS THE SAME AS THE VERSE

Bridge

      E          A          C#         C
e|----0-----|----0-----|----x-----|----x----|
B|----0-----|----0-----|----x-----|----x----|
G|----1-----|----2-----|----6-----|----5----|
D|----2-----|----2-----|----4-----|----5----|
A|----2-----|----0-----|----4-----|----3----|
E|----0-----|----0-----|----x-----|----x----|


****This is that one part that is played on a violin i think........anyways this
is how to play it on guitar****
e|-----------------------------------------------|
B|-----------------------------------------------|
G|-----------------------------------------------|
D|-6--6--6-6-6--7--6--4--6---6--6--6-------------|
A|--------------------------------------6--7-----|
E|-----------------------------------------------|

End on     
        E
e|------0--------|
B|------0--------|
G|------1--------|
D|------2--------|
A|------2--------|
E|------0--------|

well thats it listen to the song to get the strumming down its pretty easy


Текст, аккорды и табулатура для песни "For The Moments I Feel Faint", исполняет "Relient K".
Используемые в песне аккорды можно найти в разделе Как брать аккорды. Аккорды для шестиструнной гитары. Другие песни можно найти на нашем сайте, воспользовавшись алфавитным указателем вверху страницы.


 
Ошибка в тексте? Выделите ошибку и нажмите Ctrl+Enter