Chapstick, chapped lips, and things like chemistry by Relient K
Standard Tuning

(Intro)
G:------------------|
D:------------------|  x2
A:------2-----------|
E:0-2-4---0--0-0-0-2|

G:---------|      |----------|
D:---------|  x3  |----------|
A-----2----|      |2--------2|
E:0-2---0-2|      |-----0-2--|

G:---------|
D:---------|
A:2--1-----|
E:-----4--2|

G:------------------|
D:------------------|  x2
A:------2-----------|
E:0-2-4---0--0-0-0-2|

G:---------|      |----------|
D:---------|  x3  |----------|
A-----2----|      |2--------2|
E:0-2---0-2|      |-----0-2--|

G:----------|
D:----------|
A:----------|
E:4--2--0--2|

G:-----------|      |---------|
D:-----------|  x3  |---------|
A:2-2-2-2----|      |---------|
E:--------0-2|      |-4--2--0-|

G:---------------------------------------|
D:---------------------------------------|  x7
A:---------2-2-2-2--2-2--1-1-1-1--2-2-2-2|
E:0-0-0-0--------------------------------|

(Outro)
G:------------|
D:------------|
A:---2---1---2|
E:0-----------|

Thanks, please rate it after you learn it.
Tabbed by:
_TheBassist01_


Текст, аккорды и табулатура для песни "Chapstick Chapped Lips And Things Like Chemistry", исполняет "Relient K".
Используемые в песне аккорды можно найти в разделе Как брать аккорды. Аккорды для шестиструнной гитары. Другие песни можно найти на нашем сайте, воспользовавшись алфавитным указателем вверху страницы.


 
Ошибка в тексте? Выделите ошибку и нажмите Ctrl+Enter