Song: chapstick, chapped lips, and things like chemistry
Artist: relient k
Album: Two Lefts Don't Make a Right...but Three Do
Tabbed by: Sam Blake

 -------------------
|Legend:            |
| x = palm mute     |
| ! = cut-off       |
| / = slide up      |
|  = slide down    |
| ~ = let ring      |
 -------------------


Intro (Lead Only): play 2x
e|------------------------------|
B|-7-77-77--7777--7-77-77--7777-|
G|-4-44-44--4444--4-44-44--4444-|
D|------------------------------|
A|------------------------------|
E|------------------------------|


Verse One Rhythm: play 1x - use same strumming as Lead until last E5
e|------------------------------|
B|------------------------------|
G|-4--3--------4--3-------------|
D|-4--4--6--2--4--4--6--2-2-xxx-|
A|-2--1--6--2--2--1--6--2-2-xxx-|
E|-------4--0--------4--0-0-xxx-|

Verse One Lead: play 4x - end  with  this
e|------------------------------|  |------|
B|-7-77-77--7777--7-77-77--7777-|  |-xxxx-|
G|-4-44-44--4444--4-44-44--4444-|  |-xxxx-|
D|------------------------------|  |------|
A|------------------------------|  |------|
E|------------------------------|  |------|


Pre-Chorus (Rhythm Only): play 2x - 2nd time cut off before last F#5
e|---------------------------------------------|
B|---------------------------------------------|
G|-------------4-------------------------------|
D|-6---4---2---4---2-22-22--2222--2-22-22--4-4-|
A|-6---4---2---2---2-22-22--2222--2-22-22--4-4-|
E|-4---2---0-------0-00-00--0000--0-00-00--2-2-|


Chorus Rhythm: 
Part One - play 3x
e|--------------------|
B|--------------------|
G|-4---------4--------|
D|-4---2--4--4---2--4-|
A|-2---2--4--2---2--4-|
E|-----0--2------0--2-|
Part Two - play 1x
e|-----------------------------------------|
B|-----------------------------------------|
G|------------4-44-44--4444--4-44-44--4444-|
D|-6!---2--4--4-44-44--4444--4-44-44--4444-|
A|-6!---2--4--2-22-22--2222--2-22-22--2222-|
E|-4!---0--2-------------------------------|

Chorus Lead: play 6x - cut out when rhythm gets to Part Two
e|-77777777777777777777777777777777-|
B|----------------------------------|
G|-44444444444444444444444444444444-|
D|-44444444444444444444444444444444-|
A|----------------------------------|
E|----------------------------------|


Verse Two Rhythm: play 1x - use same strumming as Lead until last E5
e|------------------------------|
B|------------------------------|
G|-4--3--------4--3-------------|
D|-4--4--6--2--4--4--6--2-2-xxx-|
A|-2--1--6--2--2--1--6--2-2-xxx-|
E|-------4--0--------4--0-0-xxx-|

Verse Two Lead: 
Part One - play 1x when rhythm plays first E5
e|--------|
B|--------|
G|--------|
D|-2--2-2-|
A|--------|
E|--------|
Part Two - play 2x - end with -----> this
e|------------------------------|  |------|
B|-7-77-77--7777--7-77-77--7777-|  |-xxxx-|
G|-4-44-44--4444--4-44-44--4444-|  |-xxxx-|
D|------------------------------|  |------|
A|------------------------------|  |------|
E|------------------------------|  |------|


Pre-Chorus (Rhythm Only): play 2x - 2nd time cut off before last F#5
e|---------------------------------------------|
B|---------------------------------------------|
G|-------------4-------------------------------|
D|-6---4---2---4---2-22-22--2222--2-22-22--4-4-|
A|-6---4---2---2---2-22-22--2222--2-22-22--4-4-|
E|-4---2---0-------0-00-00--0000--0-00-00--2-2-|


Chorus Rhythm: 
Part One - play 3x
e|--------------------|
B|--------------------|
G|-4---------4--------|
D|-4---2--4--4---2--4-|
A|-2---2--4--2---2--4-|
E|-----0--2------0--2-|
Part Two - play 1x
e|-----------------------------------------|
B|-----------------------------------------|
G|------------4-44-44--4444--4-44-44--4444-|
D|-6!---2--4--4-44-44--4444--4-44-44--4444-|
A|-6!---2--4--2-22-22--2222--2-22-22--2222-|
E|-4!---0--2-------------------------------|

Chorus Lead: play 6x - cut out when rhythm gets to Part Two
e|-77777777777777777777777777777777-|
B|----------------------------------|
G|-44444444444444444444444444444444-|
D|-44444444444444444444444444444444-|
A|----------------------------------|
E|----------------------------------|


Bridge: (play Parts One and Two w/ clean guitar)
Part One - play 2x
e|-2-22-22--2222-|
B|-4-44-44--4444-|
G|-4-44-44--4444-|
D|-4-44-44--4444-|
A|-2-22-22--2222-|
E|---------------|
Part Two - play 3x
e|-2-22-22--2222--0-00-00--2222-
B|-4-44-44--4444--0-00-00--2222-
G|-4-44-44--4444--1-11-11--3333-
D|-4-44-44--4444--2-22-22--4444-
A|-2-22-22--2222--2-22-22--4444-
E|----------------0-00-00--2222-
Part Three - play 1x
e|---------------|
B|---------------|
G|---------------|
D|-6!--4!--2--/4-|
A|-6!--4!--2--/4-|
E|-4!--2!--0--/2-|


Chap stick Chorus Rhythm:
Part One - play 3x
e|--------------------------------------------|
B|--------------------------------------------|
G|-4--44-444--4--44-444-----------------------|
D|-4--44-444--4--44-444--2--22-222--4--44-444-|
A|-2--22-222--2--22-222--2--22-222--4--44-444-|
E|-----------------------0--00-000--2--22-222-|
Part Two - play 1x
e|------------------------|
B|------------------------|
G|------------------------|
D|-6-66-66--6666--6-4-2-|
A|-6-66-66--6666--6-4-2-|
E|-4-44-44--4444--4-2--|

Chap stick Chorus Lead: play 3x - cut out when rhythm gets to Part Two
e|-77777777777777777777777777777777-|
B|----------------------------------|
G|-44444444444444444444444444444444-|
D|-44444444444444444444444444444444-|
A|----------------------------------|
E|----------------------------------|


Solo/Ending Rhythm:
Part One - play 7x
e|--------------------------------|
B|--------------------------------|
G|-------4444-44--3333--4444------|
D|-2222--4444-44--4444--4444--44-|
A|-2222--2222-22--1111--2222--44-|
E|-0000-----------------------22-|
Part Two - play 1x
e|------------------|
B|------------------|
G|-----4~--3~--4~~--|
D|-2~--4~--4~--4~~--|
A|-2~--2~--1~--2~~--|
E|-0~---------------|

Solo/Ending Lead: play 2x - start after Rhythm plays Part One twice
e|--12--11--9-11-97-4--7--9-11-9-7--12--11--9-11-97-4--7--9-11-9~-|
B|-0--00--00-0--0----00-00-0--0-0--0--00--00-0--0----00-00-0------|
G|----------------------------------------------------------------|
D|----------------------------------------------------------------|
A|----------------------------------------------------------------|
E|----------------------------------------------------------------|



Notes/Comments:
   The lead parts in this song are very fast.  Also, I tried to tab the strumming
pattern as best I could, but you might have to change it a little.
*Note* - the first F#5 power chord below is in first inversion.  The second is normal.


Chords Used:
    B5 F#5 G#m5 E5 F#5 B  E  F#
e|---------------------2--0--2--|
B|---------------------4--0--2--|
G|--4--3---------------4--1--3--|
D|--4--4---6----2--4---4--2--4--|
A|--2--1---6----2--4---2--2--4--|
E|---------4----0--2------0--2--|


Текст, аккорды и табулатура для песни "Chapstick Chapped Lips", исполняет "Relient K".
Используемые в песне аккорды можно найти в разделе Как брать аккорды. Аккорды для шестиструнной гитары. Другие песни можно найти на нашем сайте, воспользовавшись алфавитным указателем вверху страницы.


 
Ошибка в тексте? Выделите ошибку и нажмите Ctrl+Enter