* w00f *

                               * Drop 6th to D *
                     * Refused will always be in our hearts *
   * Enjoy this great song, this great album & make your new noise   :o) *


 _|Riff1_______________________________________________________________
 e|----------------|----------------|----------------|----------------|
 B|--5-5-5-5-5---5-|5-5-5-5---5-5-5-|8-5---5-5-5-5-5-|--5-5-5-5-5---5-|
 G|7-----------7---|--------7-------|----7-----------|7-----------7---|
 D|----------------|----------------|----------------|----------------|
 A|----------------|----------------|----------------|----------------|
 D|----------------|----------------|----------------|----------------|
 ЇЇЇЇЇЇЇЇЇЇЇЇЇЇЇЇЇЇЇЇЇЇЇЇЇЇЇЇЇЇЇЇЇЇЇЇЇЇЇЇЇЇЇЇЇЇЇЇЇЇЇЇЇЇЇЇЇЇЇЇЇЇЇЇЇЇЇЇЇЇ
 ______________________________________________________________________
 e|----------------|----------------|----------------|0-0-0-0-0-0-0-0-|
 B|7-5---5-5-5-5-5-|--5-5-5-5-5---5-|6-5---5-5-5-5-5-|5-5-5-5-5-5-5-5-|
 G|----7-----------|7-----------7---|----7-----------|----------------|
 D|----------------|----------------|----------------|----------------|
 A|----------------|----------------|----------------|----------------|
 D|----------------|----------------|----------------|----------------|
 ЇЇЇЇЇЇЇЇЇЇЇЇЇЇЇЇЇЇЇЇЇЇЇЇЇЇЇЇЇЇЇЇЇЇЇЇЇЇЇЇЇЇЇЇЇЇЇЇЇЇЇЇЇЇЇЇЇЇЇЇЇЇЇЇЇЇЇЇЇЇ

 _|Riff2____________________________|Riff2.1___________________________
 e|----------------|----------------|----------------|----------------|
 B|----------------|----------------|----------------|----------------|
 G|----------------|----------------|----------------|----------------|
 D|----------------|----------------|----------------|----------------|
 A|----------------|----------------|----------------|----------------|
 D|0-2-2-2-2-2-0-2-|3-2-0-3---------|0-2-2-2-2-2-0-2-|3-2-0.----------|
 ЇЇЇЇЇЇЇЇЇЇЇЇЇЇЇЇЇЇЇЇЇЇЇЇЇЇЇЇЇЇЇЇЇЇЇЇЇЇЇЇЇЇЇЇЇЇЇЇЇЇЇЇЇЇЇЇЇЇЇЇЇЇЇЇЇЇЇЇЇЇ

 _|Riff3____________________________|Riff3.1___________________________
 e|----------------|----------------|----------------|----------------|
 B|----------------|----------------|----------------|----------------|
 G|----------------|----------------|----------------|----------------|
 D|0-2-2-2-2-2-0-2-|3-2-0-3---------|0-2-2-2-2-2-0-2-|3-2-0.----------|
 A|0-2-2-2-2-2-0-2-|3-2-0-3---------|0-2-2-2-2-2-0-2-|3-2-0.----------|
 D|0-2-2-2-2-2-0-2-|3-2-0-3---------|0-2-2-2-2-2-0-2-|3-2-0.----------|
 ЇЇЇЇЇЇЇЇЇЇЇЇЇЇЇЇЇЇЇЇЇЇЇЇЇЇЇЇЇЇЇЇЇЇЇЇЇЇЇЇЇЇЇЇЇЇЇЇЇЇЇЇЇЇЇЇЇЇЇЇЇЇЇЇЇЇЇЇЇЇ

 _|Riff4_______________________________________________________________
 e|----------------|----------------|----------------|----------------|
 B|----------------|----------------|----------------|----------------|
 G|----------------|4---------------|3---------------|----------------|
 D|2---------------|2---------------|4---------------|----------------|
 A|2---------------|2---------------|2---------------|----------------|
 D|2---------------|----------------|----------------|----------------|
 ЇЇЇЇЇЇЇЇЇЇЇЇЇЇЇЇЇЇЇЇЇЇЇЇЇЇЇЇЇЇЇЇЇЇЇЇЇЇЇЇЇЇЇЇЇЇЇЇЇЇЇЇЇЇЇЇЇЇЇЇЇЇЇЇЇЇЇЇЇЇ
 ______________________________________________________________________
 e|----------------|----------------|----------------|----------------|
 B|----------------|----------------|----------------|----------------|
 G|----------------|3---------------|4---------------|----------------|
 D|2---------------|4---------------|4---------------|----------------|
 A|2---------------|2---------------|2---------------|----------------|
 D|2---------------|----------------|----------------|----------------|
 ЇЇЇЇЇЇЇЇЇЇЇЇЇЇЇЇЇЇЇЇЇЇЇЇЇЇЇЇЇЇЇЇЇЇЇЇЇЇЇЇЇЇЇЇЇЇЇЇЇЇЇЇЇЇЇЇЇЇЇЇЇЇЇЇЇЇЇЇЇ
 _|Riff5_:o)___________________________________________________________
 e|----------------|----------------|----------------|----------------|
 B|----------------|----------------|----------------|----------------|
 G|4---4-4-4-4-4-4-|4---4-4-4-4-2-2-|3---3-3-3-3-3-3-|3---3-3-3-3-3-3-|
 D|2---2-2-2-2-2-2-|2---2-2-2-2-2-2-|4---4-4-4-4-4-4-|4---4-4-4-4-4-4-|
 A|2---2-2-2-2-2-2-|2---2-2-2-2-2-2-|2---2-2-2-2-2-2-|2---2-2-2-2-2-2-|
 D|2---2-2-2-2-2-2-|----------------|----------------|----------------|
 ЇЇЇЇЇЇЇЇЇЇЇЇЇЇЇЇЇЇЇЇЇЇЇЇЇЇЇЇЇЇЇЇЇЇЇЇЇЇЇЇЇЇЇЇЇЇЇЇЇЇЇЇЇЇЇЇЇЇЇЇЇЇЇЇЇЇЇЇЇЇ
 ______________________________________________________________________
 e|----------------|----------------|----------------|----------------|
 B|----------------|----------------|----------------|----------------|
 G|4---4-4-4-4-4-4-|3---3-3-3-3-3-3-|----------------|----------------|
 D|2---2-2-2-2-2-2-|4---4-4-4-4-4-4-|9---9-9-9-9-9-9-|9---9-9-9-9-9-9-|
 A|2---2-2-2-2-2-2-|2---2-2-2-2-2-2-|9---9-9-9-9-9-9-|9---9-9-9-9-9-9-|
 D|2---2-2-2-2-2-2-|----------------|9---9-9-9-9-9-9-|9---9-9-9-9-9-9-|
 ЇЇЇЇЇЇЇЇЇЇЇЇЇЇЇЇЇЇЇЇЇЇЇЇЇЇЇЇЇЇЇЇЇЇЇЇЇЇЇЇЇЇЇЇЇЇЇЇЇЇЇЇЇЇЇЇЇЇЇЇЇЇЇЇЇЇЇЇЇЇ

 _|Riff5.1______________________________________________________________
 e|----------------|----------------|----------------|----------------|
 B|----------------|----------------|----------------|----------------|
 G|----------------|----------------|----------------|----------------|
 D|7---7-7-7-7-7-7-|7---7-7-7-7-7-7-|5---5-5-5-5-5-5-|5---5-5-5-5-5-5-|
 A|7---7-7-7-7-7-7-|7---7-7-7-7-7-7-|5---5-5-5-5-5-5-|5---5-5-5-5-5-5-|
 D|7---7-7-7-7-7-7-|7---7-7-7-7-7-7-|5---5-5-5-5-5-5-|5---5-5-5-5-5-5-|
 ЇЇЇЇЇЇЇЇЇЇЇЇЇЇЇЇЇЇЇЇЇЇЇЇЇЇЇЇЇЇЇЇЇЇЇЇЇЇЇЇЇЇЇЇЇЇЇЇЇЇЇЇЇЇЇЇЇЇЇЇЇЇЇЇЇЇЇЇЇЇ
 ____________________________________
 e|----------------|----------------|
 B|----------------|----------------|
 G|----------------|----------------|
 D|3---3-3---3-3---|3---3---3-3-3-3-|
 A|3---3-3---3-3---|3---3---3-3-3-3-|
 D|3---3-3---3-3---|3---3---3-3-3-3-|
 ЇЇЇЇЇЇЇЇЇЇЇЇЇЇЇЇЇЇЇЇЇЇЇЇЇЇЇЇЇЇЇЇЇЇЇЇ

 _|Riff6____________________________|Riff6.1_____________________________
 e|----------------|----------------|----------------|----------------|-.
 B|----------------|----------------|----------------|----------------|-.
 G|----------------|----------------|----------------|----------------|-.
 D|0-2.--------0-2.|--2.------------|2-----2-----9---|------------0---|2.
 A|0-2.--------0-2.|--2.------------|2-----2-----9---|------------0---|2.
 D|0-2.--------0-2.|--2.------------|2-----2-----9---|------------0---|2.
 ЇЇЇЇЇЇЇЇЇЇЇЇЇЇЇЇЇЇЇЇЇЇЇЇЇЇЇЇЇЇЇЇЇЇЇЇЇЇЇЇЇЇЇЇЇЇЇЇЇЇЇЇЇЇЇЇЇЇЇЇЇЇЇЇЇЇЇЇЇЇЇЇ
 _|Riff7_____________________________|Riff7.1___________________________
 e|-----------------|----------------|----------------|----------------|
 B|-----------------|----------------|----------------|----------------|
 G|-----------------|----------------|----------------|----------------|
 D|(2---------------|----------------|----------------|-------2--2.----|
 A|(2---------------|----------------|----------------|-------2--2.----|
 D|(2---------------|----------------|----------------|-------2--2.----|
 ЇЇЇЇЇЇЇЇЇЇЇЇЇЇЇЇЇЇЇЇЇЇЇЇЇЇЇЇЇЇЇЇЇЇЇЇЇЇЇЇЇЇЇЇЇЇЇЇЇЇЇЇЇЇЇЇЇЇЇЇЇЇЇЇЇЇЇЇЇЇЇ
  (x Palm mutted

 _|Riff8.0__________________________|Riff8_____________________________
 e|----------------|----------------|----------------|----------------|
 B|----------------|----------------|----------------|----------------|
 G|----------------|----------------|----------------|----------------|
 D|0-2-2-2-2-2-0-2-|3-2-0-3-----2---|0-0-2-2-2-2-0-2-|3-2-0-3-----2---|
 A|0-2-2-2-2-2-0-2-|3-2-0-3-----2---|0-0-2-2-2-2-0-2-|3-2-0-3-----2---|
 D|0-2-2-2-2-2-0-2-|3-2-0-3-----2---|0-0-2-2-2-2-0-2-|3-2-0-3-----2---|
 ЇЇЇЇЇЇЇЇЇЇЇЇЇЇЇЇЇЇЇЇЇЇЇЇЇЇЇЇЇЇЇЇЇЇЇЇЇЇЇЇЇЇЇЇЇЇЇЇЇЇЇЇЇЇЇЇЇЇЇЇЇЇЇЇЇЇЇЇЇЇ
 _|Riff9____________________________|Riff9.1___________________________
 e|----------------|----------------|----------------|----------------|
 B|----------------|----------------|----------------|----------------|
 G|----------------|----------------|----------------|----------------|
 D|0-0-2-2.----0-2.|--2.--3-----2---|0-2>------------|----------------|
 A|0-0-2-2.----0-2.|--2.--3-----2---|0-2>------------|----------------|
 D|0-0-2-2.----0-2.|--2.--3-----2---|0-2>------------|----------------|
 ЇЇЇЇЇЇЇЇЇЇЇЇЇЇЇЇЇЇЇЇЇЇЇЇЇЇЇЇЇЇЇЇЇЇЇЇЇЇЇЇЇЇЇЇЇЇЇЇЇЇЇЇЇЇЇЇЇЇЇЇЇЇЇЇЇЇЇЇЇЇ
 x> Fade out (natural)

 ________________________________________________________________________
 Guitar1: [Riff1]x2[Riff1]x2[_Riff1_]         [Riff3]x3[Riff3.1][Riff3]x3
 Guitar2:                   [Riff2]x4         [Riff3]x3[Riff3.1][Riff3]x3
 Other:            (  D&B  )         ( Beat! )                           
 ЇЇЇЇЇЇЇЇЇЇЇЇЇЇЇЇЇЇЇЇЇЇЇЇЇЇЇЇЇЇЇЇЇЇЇЇЇЇЇCan I scream !ЇЇЇЇЇЇЇЇЇЇЇЇЇЇЇЇЇЇЇ
 _____________________________________________________________________________
 [Riff3.1][Riff1]x2[Riff3]x3[Riff3.1][Riff3]x3[Riff3.1][Riff1][Riff1][Riff5]x2
 [Riff3.1]         [Riff3]x3[Riff3.1][Riff3]x3[Riff3.1]       [Riff4][Riff5]x2
          ( voices)                                    (   voices   )         
 ЇЇЇЇЇЇЇЇЇЇЇЇЇЇЇЇЇЇЇЇЇwoow !ЇЇЇЇЇЇЇЇЇЇЇЇЇЇЇЇЇЇЇЇЇЇЇЇЇЇЇЇЇЇЇЇЇЇЇЇЇЇЇЇЇЇЇЇЇЇЇЇЇЇ
 ___________________________________________________________________________
 [Riff5.1][Riff6]x4[Riff6][Riff6][Riff6][Riff6.1]                           
 [Riff5.1][Riff6]x4[____Riff1___][_____Riff1____][Riff1]x2                  
                                               (Dance all the wrong songs:o)
 ЇЇЇЇЇЇЇЇЇЇЇЇЇЇЇЇЇЇЇЇЇЇЇЇЇЇЇЇЇЇЇЇЇЇЇЇЇЇЇЇЇЇЇЇЇЇЇЇЇЇЇЇЇЇЇЇЇЇЇЇЇЇЇЇЇЇЇЇЇЇЇЇЇЇЇ
 ______________________________________________________________________
                            [Riff2]x3[Riff2.1][Riff3]x3[Riff3.1]       
 ...[Riff7][   ][Riff7][   ][Riff7]x3[_Riff7_]                         
                                                                ( D&B )
 ЇЇЇЇЇЇЇЇЇЇЇЇЇЇЇЇЇЇЇЇЇЇЇЇЇЇЇЇЇЇЇЇЇЇЇЇЇЇЇЇЇЇЇЇЇЇЇЇЇЇЇЇЇЇЇЇЇЇЇЇЇЇЇЇЇЇЇЇЇЇ
 ___________________________________________________________
 [Riff8.0][Riff8]x7[Riff8]x4[Riff9]x4[Riff8]x4[Riff9.1] 
 [Riff8.0][Riff8]x7[Riff9]x4[Riff9]x4[Riff8]x4[Riff9.1] 
                                                
 0eee !ЇЇЇЇЇЇЇЇЇЇЇЇЇЇЇЇЇЇЇЇЇЇЇЇЇЇЇЇЇЇЇЇЇЇЇЇЇЇЇЇЇЇЇЇЇЇЇЇЇЇЇЇЇ
                    * Any question, any suggestion, email me *
                                  * 01/2004 *

                                   * w00f *


Текст, аккорды и табулатура для песни "New Noise", исполняет "Refused".
Используемые в песне аккорды можно найти в разделе Как брать аккорды. Аккорды для шестиструнной гитары. Другие песни можно найти на нашем сайте, воспользовавшись алфавитным указателем вверху страницы.


 
Ошибка в тексте? Выделите ошибку и нажмите Ctrl+Enter