----------------------------------------------------------------------------
			     SOMEBODY LOVED ME - Reel Big Fish
----------------------------------------------------------------------------
Tabbed by: Jesse Benedick
Email: [email protected]

Tuning: Standard

e|---------------------------------------|
B|---------------------------------------|
G|-----7-6-4----7-6-4----7-6-4----6/7----|
D|--7--------5--------4--------3---------|
A|---------------------------------------|
E|---------------------------------------|
Opening Notes Guitar 1
e|-----------12-------10---------------------|-9-10-9-7----|-12----9-------|
B|-----10-------10-------10----/12-12-12-10~-|----------10-|----10---10----|
G|--9------9--------9--------9---------------|-------------|---------------|
D|-------------------------------------------|-------------|---------------|
A|-------------------------------------------|-------------|---------------|
E|-------------------------------------------|-------------|---------------|
Opening Notes Guitar 2                        Repeat 3x
e|---------------------------------|
B|---------------------------------|
G|---------------------6-6-77-6-7--|
D|--7~~~--2--6-7-6--2--6-6-77-6-7--|
A|--------2--6-7-6--2--4-4-55-4-5--|
E|--------0--4-5-4--0--------------|
 Main Chords                          
e|-------------------------------------------------------------------------|
B|-------------------------------------------------------------------------|
G|-----9--------6----7-----9--------6----7-----9--------6----7-------------|
D|-----9--------6----7-----9--------6----7-----9--------6----7-------------|
A|-----7--------4----5-----7--------4----5-----7--------4----5-------------|
E|-------------------------------------------------------------------------|
Verse Guitar 1
e|--------------------------------------12---------------------------------|
B|--------9-------------------9------12-----------9------------------------|
G|----------9--------999~-------9-------------------9--------999~----------|
D|--------------9-11------------------------------------9-11---------------|
A|-------------------------------------------------------------------------|
E|-------------------------------------------------------------------------|
Verse Guitar 2
e|-----------------------|----------------------|
B|-----------------------|----------------------|
G|--6-7----6-7----6-7----|------------6----7----|
D|--6-7----6-7----6-7----|--7----9----6----7----|
A|--4-5----4-5----4-5----|--7----9----4----5----|
E|-----------------------|--5----7--------------|
End Verse Chords Guitar 1      Chorus Chords
e|-------------------------15p12-------15p12-------15p12-------15p12-------|
B|----------------------12-------15p12-------15p12-------15p12-------15p12-|
G|--14b15r14--12h14p12~----------------------------------------------------|
D|-------------------------------------------------------------------------|
A|-------------------------------------------------------------------------|
E|-------------------------------------------------------------------------|
Solo
e|---------------------------------------------------------------------|
B|-17b18-17~-----------------------------------------------------------|
G|----------------------------------------------12-14-14b15-14--12~----|
D|--------------77777b8888r77777-5h7p5~---12-14------------------------|
A|---------------------------------------------------------------------|
E|---------------------------------------------------------------------|
Solo Continued  (tremolo pick)

That's it! Have fun!

| /  slide up
|   slide down
| h  hammer-on
| p  pull-off
| ~  vibrato
| +  harmonic
| x  Mute note
============================================================================


Текст, аккорды и табулатура для песни "Somebody Loved Me", исполняет "Reel Big Fish".
Используемые в песне аккорды можно найти в разделе Как брать аккорды. Аккорды для шестиструнной гитары. Другие песни можно найти на нашем сайте, воспользовавшись алфавитным указателем вверху страницы.


 
Ошибка в тексте? Выделите ошибку и нажмите Ctrl+Enter