Date: August 17, 2001

Artist:Reel Big Fish
Song:Somebody Hates Me
Album:Why do They Rock so Hard?
Completely overhauled and tabbed by [email protected]
In case you care, this song is in the key of A.

Tab Notes:
Slide up   /
Slide down 
Bend b
Hammer on h
Pull off p
Hold note or vibrato : ~

Intro: (Really there are two guitar parts going on here,try playing with
	another guitarist doing the same lead part,see how it sounds)

e--------------7p5-----------------------------------------------------------------
B-----------------7p5--------------------------------------------------------------
G-2-6/5-7---x7-------6------6-77---/6-7-9-9b11r9-9p7p6--6b7----------------7-6-4--2/
D-2-6/7-7-9-x7--------6b7------------------------------------7-------7h9p7--------2/
A-0-4/5-5-9-x5--------------4-55-------------------------------9-7h9--------------0/
E---------7------------------------------------------------------------------------
Pre Pre Verse (technically thats what it is)  (this parts tricky, 
especially the high part at the end, try and use either your 
middle finger or ring finger for the top two strings and mute 
the rest with your thumb.)

e-x5x5x7x75-7-7-x-/9-9-9-xx-7-5--
B-x5x5x9x97-7-7-x-/9-9-9-xx-7-5--
G-x6x6x9x97-7-7-x----------------
D-x7x7x9x97-7-7-x----------------
A-x7x7x7x75-5-5------------------
E-x5x5----------------------------

Variation of pre pre verse ( this part is done after the above is played once, 
i know its a pain but if you listen Aaron plays the part differently the 2nd time)

e-x5xxx5/7-7-7-x-5-5-5-5-/9-9-9-xx-7-5-----
B-x5xxx7/9-9-9-x-7-7-7-7-/9-9-9-xx-7-5-----
G-x6xxx7/9-9-9-x-7-7-7-7-------------------
D-x7xxx7/9-9-9-x-7-7-7-7-------------------
A-x7xxx5/7-7-7-x-5-5-5-5-------------------
E--5---------------------------------------

Pre Verse: 


e--5-xxxx5/7-7-7--5-5-5-5--7-7-7-7---
B--5-xxxx7/9-9-9--7-7-7-7--9-9-9-9---
G--6-xxxx7/9-9-9--7-7-7-7--9-9-9-9---
D--7-xxxx7/9-9-9--7-7-7-7--9-9-9-9---
A--7-----5/7-7-7--5-5-5-5--7-7-7-7---
E--5---------------------------------

Verse: ( now this was the hardest part becides the intro, 
the guitaris very low in the mix so its hard to hear
and it took me a while to figure this out,it should 
be very close, if not let me know)

--5-5-x-5----x-7-x-75-5-x-5---------
--5-5-x-5-*--x-9-x-97-7-x-5-*-------
--6-6-x-6----x-9-x-97-7-x-6---------
--7-7-x-7----x-9-x-97-7-x-7---------
- 7-7-x-7-*--x-7-x-75-5-x-7-*-------
--5-5-x-5------------------5---------

* the part in the stars gets repeated, the part before the stars
is only the first time, i know its confusing but this stuff is hard 
to explain in tabs. 

Pre Chrous:
e---------------------------------------------------------
B---------------------------------------------------------
G--------6--6-6-xx-4-4-44-4-44-44-44-4-44-77-77-7-77-9~---
D--7-7-7-6--6-6-xx-4-4-44-4-44-44-44-4-44-77-77-7-77-9~---
A--7-7-7-4--4-4-xx-2-2-00-2-00-22-00-2-00-55-00-5-00-7~---
E--5-5-5--------------------------------------------------
   * * * 

semi-PM = *


Chrous (  this part is actually palmmuting the lower notes and 
not palmmuting the higher strings so theres both muted notes and 
crazy harmonics at the same time, or you could just have two guitars 
each part :)  )

e------------------------------
B------------------------------
G------------then-------77-9---
D-77----77--------77-99-77-9---
A-77xxxx77--------77-99-55-7---
E-55xxxx55--------55-77--------

Bridge: (these chors can be played as octave chords too...)

e-----------------------------------------
B-----------------------------------------
G------6-4-44444---------------6-44444-7--
D-444--6-4-44444--666-9-7--444-6-44444-7--
A-444--4-2-22222--666-9-7--444-4-22222-5--
E-222-------------444-7-5--222------------

Then go back to intro after the bridge, at the end do the slide up 
and back downwith the A power chord,and end up hitting A5 
again but this time holding it.

Cool little interlude : This part is damn hard,i saw Aaron do it using
full bar chords but obviously only playing the high notes. I cant do this
very well so I'll tab out  my way. If you wanna play his was use the bar 
chords A Major where there are 5's below, C# minor where there is the 4
and 5, and E major (at 7th fret on A string)  where there are 5 and 7.
				 

------5~----5-555-4-555-4-555-4---0-00----5-555-4-555-4-555-555-5-777-
------5~----5-555-5-555-5-555-5---5-55----5-555-5-555-5-555-555-5-555-
----------------------------------------------------------------------
-7~-------------------------------------------------------------------
-7~-------------------------------------------------------------------
-5~-------------------------------------------------------------------

then:
-----------------------
-----------------------
---------777-9~--------
-77-7-2----------------
-77-7-2--555-7~--------
-55-5-0----------------
then go to prechorus, then to chorus, and FINALLY end on

----------------------------------------------------------
----------------------------------------------------------
---------------with random high pitched feedback also...--
---77-7-2~------------------------------------------------
---77-7-2~------------------------------------------------
---55-5-0~------------------------------------------------

Well thats that, a difficult song to tab but i think you'll find this tab better 
than most of the crap tabs out there. Please email me to let me know what you
think or if you have questions !!! I have other tabs by RBF if anyone wants any.



Текст, аккорды и табулатура для песни "Somebody Hates Me", исполняет "Reel Big Fish".
Используемые в песне аккорды можно найти в разделе Как брать аккорды. Аккорды для шестиструнной гитары. Другие песни можно найти на нашем сайте, воспользовавшись алфавитным указателем вверху страницы.


Слушать онлайн Somebody Hates Me


Reel Big FishSomebody Hates Me на Яндекс.Музыке


 
Ошибка в тексте? Выделите ошибку и нажмите Ctrl+Enter