This is a gret song by the Reel Big Fish.  If you want the right tab here it is.


Intro

E---5-----1-----3-----3-----------------------------------------
B---5-----1-----3-----3-----------------------------------------
G---5-----2-----5-----4-----------------------------------------
D---7-----3-----------5-----------------------------------------
A---------------------------------------------------------------
E---------------------------------------------------------------

1st Solo

E---5-5-5-----------10-13-13-13-10----10----------------------------------
B---------5-/-10-13----------------13----10-8-----------^^^^^ect.---------
G---------------------------------------------9-7-5-7-5-7---------5-------
D-------------------------------------------------------------------7-----
A-------------------------------------------------------------------------
E-------------------------------------------------------------------------

Verse

E---5-----1-----3-----3------------------------------------------
B---5-----1-----3-----3------------------------------------------
G---5-----2-----5-----4------------------------------------------
D---7-----3-----------5------------------------------------------
A----------------------------------------------------------------
E----------------------------------------------------------------

Chorus

E-------------------------------------------------------------------
B-------------------------------------------------------------------
G---------5---------------------------------------------------------
D---3-----5-----5-----5---------------------------------------------
A---3-----3-----5-----5---------------------------------------------
E---1-----------3-----3---------------------------------------------

1st Solo

Verse

Chorus

2nd Solo

E----------------------------------------------------------------------
B---10-10-10---8----------^--------------------------------------------
G------------9---9-8-7-5--7-5--------------5h7-7-9-7-5h7---------------
D-------------------------7-------7------7---------------7-555-7-555-7-
A----------------------------------------------------------xxx-x-xxx-x-
E-----------------------------5-5---5-5--------------------333-5-333-5-
    
E----^-------17-17-17-20-20-20-22-22-22--------------------------
B---15-13----17-17-17-20-20-20-22-22-22--------------------------
G---------14-----------------------------------------------------
D----------------------------------------------------------------
A----------------------------------------------------------------
E----------------------------------------------------------------

Verse

Fill Ins
E---------
B---^-----
G---7-5---
D-------7-
A---------
E---------

E---------------
B---------------
G-----------5-7-
D-------5-7-----
A---5-7---------
E---------------

Chorus

1st Solo

Outro

E----------------------------------------------------------------
B----------------------------------------------------------------
G-----------555--------------------------------------------------
D---777-333-xxx-555----------------------------------------------
A---xxx-xxx-333-xxx----------------------------------------------
E---555-111-----333----------------------------------------------

End on

E-----
B-----
G-----
D---7-
A---7-
E---5-


Текст, аккорды и табулатура для песни "Beer", исполняет "Reel Big Fish".
Используемые в песне аккорды можно найти в разделе Как брать аккорды. Аккорды для шестиструнной гитары. Другие песни можно найти на нашем сайте, воспользовавшись алфавитным указателем вверху страницы.


Слушать онлайн Beer


Reel Big FishBeer на Яндекс.Музыке


 
Ошибка в тексте? Выделите ошибку и нажмите Ctrl+Enter