#----------------------------------PLEASE NOTE--------------------------------#
#This file is the author's own work and represents their interpretation of the#
#song. You may only use this file for private study, scholarship, or research.#
#-----------------------------------------------------------------------------#
#-- File created with Instab - http://www.pconline.com/~smcarey/instab.html --#
#-----------------------------------------------------------------------------#

Author/Artist: Reef
Title: Come back brighter
Album: Glow
Transcribed by: Matt B
Email: [email protected]

Play this one with a resonably light distortion (You've heard it so you know
what I mean - If you havent....find it and listen). For the final chorus, when
you finish the repeats and go into the last 3 bars of the chorus, repeat the
first two. What I mean is play them and then play them again and
continue as normal to the end. (This tab program dosent like me using
proper repeat numbers) The bridge part is technically a bass only one in
the original so I wrote tabbed this if for if you got bored in the bridge and
wanted to join in.(awww).I cant use half notes and dotted notes in this
tab program either so in the chorus the strumming pattern is an
interesting slightly syncopated one so if you work out your own around
these chords it will sound much more correct for you.
4 beats in a bar.        Order =
   Intro, verse,chorus,verse,chorus,bridge,verse,chorus,bridge,end.
     All nice and straitforward.
   Before I forget : DROP D TUNING!!: DADGBE

------------|------------|------------|-------------||------------------------|
------------|------------|------------|-------------||------------------------|
------------|------------|------------|-------------||------------------------|
-4--4--4--4-|-5--5--5--5-|------------|-------------||------------------------|
-5--5--5--5-|-3--3--3--3-|-4--4--4--4-|-5--5--5--5--||------------------------|
------------|------------|-5--5--5--5-|-5--5--5--5--||------------------------|
 Intro: Play twice for intro only.

------------|------------|------------|-------------||------------------------|
------------|------------|------------|-------------||------------------------|
------------|------------|------------|-------------||------------------------|
-4--4--4--4-|-0--0--0--0-|------------|-------------||------------------------|
-5--5--5--5-|-3--3--3--3-|-4--4--4--4-|-5--5--5--5--||------------------------|
------------|------------|-5--5--5--5-|-5--5--5--5--||------------------------|
 Verse Riff.Play 4 times for each verse.

----------------|---------------||-----------|------------------|-------------|
----------------|---------------||-----------|------------------|-------------|
----------------|---------------||-----------|------------------|-------------|
-9--9-9--9-7h9--|-7----7---12-12||9----99--9-|-12---12---12---12|-7-7-7-7-7-7-|
-9--9-9--9-7h9--|-7----7---12-12||9--9-99--9-|-12---12---12---12|-7-7-7-7-7-7-|
-9--9-9--9-7h9--|-7--x-7---12-12||9--9-99--9-|-12---12---12---12|-7-7-7-7-7-7-|
 Chorus.Play first two bars 3 times and then play on to others and back to

------||---------------------------------------------------------------------|
------||---------------------------------------------------------------------|
------||---------------------------------------------------------------------|
--7-7-||---------------------------------------------------------------------|
--7-7-||---------------------------------------------------------------------|
--7-7-||---------------------------------------------------------------------|
  the verse.

-|--------------------------------------||-----------------|-----------------|
-|--------------------------------------||-----------------|-----------------|
-|-------------------------------------x||-----------------|-----------------|
-|------0--------0--------0--------0---x||-8-8-8-8-8-8-8-8-|-7-7-7-7-7-7-7-7-|
-|----8--------5--------5--------5------||-8-8-8-8-8-8-8-8-|-7-7-7-7-7-7-7-7-|
-|--8-----8--5-----5--4-----4--5-----5--||-8-8-8-8-8-8-8-8-|-7-7-7-7-7-7-7-7-|
 Bridge: PLay 3 times.Then follow with the 16th notes.(The chords above)

-------------------------|--3-------------------------------------------------|
-------------------------|--3-------------------------------------------------|
-------------------------|--0-------------------------------------------------|
-------------------------|--0-------------------------------------------------|
-------------------------|--5-------------------------------------------------|
-------------------------|--5-------------------------------------------------|
 Final Chord: Ive Bi--in   Down.


Текст, аккорды и табулатура для песни "Come Back Brighter", исполняет "Reef".
Используемые в песне аккорды можно найти в разделе Как брать аккорды. Аккорды для шестиструнной гитары. Другие песни можно найти на нашем сайте, воспользовавшись алфавитным указателем вверху страницы.


Слушать онлайн Come Back Brighter


ReefCome Back Brighter на Яндекс.Музыке


 
Ошибка в тексте? Выделите ошибку и нажмите Ctrl+Enter