All I Want - Reef
Tabbed by Daniel Jarrett ([email protected])

This is such a beautiful song, up their with Consideration and Levels.I love it!!

Chords Used

C - 032010
F - 033210
G - 320033
Dm - 000231
Dm/B - 030231
Am - 002210
Em - 022000
Bb - 688766
A - 002220

Intro

----------------------------------------------------------------|
-1--3--3-s-5-s-3--1--------------1------------------------------|
-0--0--0-s-0-s-0--0--2p0------0-----------0---------0-----------|
---------------------------3------------2----2----2----2----2---|
-------------------------------------3----------3---------3-----|
----------------------------------------------------------------|

----------------------------------------------------------------|
-1--3--3-s-5-s-3--1------------1--------------------------------|
-0--0--0---0---0--0--2p0----0-----2-------0-------0-------------|
--------------------------3-------------2---2---2----2---2------|
--------------------------------------3-------3--------3--------|
----------------------------------------------------------------|

The rythem of the verse is easy when you listen to the song, F is
played very qucikly when Gary lifts his voice.


C	F		C	F
If I sent you home, would you come again
And if I said farewell, is that where you begin
And If I sent you home
Would you come on in
And If you say you won't,
then I know you will

F	     G			        G
I was all alone like a father with no son
F		G
You were like a dream,
	        G
Woken up as just begun
F	    G
I was left alone,
G			    F		G
with the promise that you made

C	G	    Dm	          Am
All I want to do is make it over you
Em	G
I Want to

And if I said farewell, then we're on our own
D'yer know I never thought I'd say the words
But You know you can't have all the hurt

Repeat Break and Chorus

	Bb	A	Dm	Dm/b	G
All I want to do is step up for you,
G	C	G	Am	F
Tell me is it tru I will come back to you
F		G
I said I would now

Repeat


Текст, аккорды и табулатура для песни "All I Want", исполняет "Reef".
Используемые в песне аккорды можно найти в разделе Как брать аккорды. Аккорды для шестиструнной гитары. Другие песни можно найти на нашем сайте, воспользовавшись алфавитным указателем вверху страницы.


Слушать онлайн All I Want


ReefAll I Want на Яндекс.Музыке


 
Ошибка в тексте? Выделите ошибку и нажмите Ctrl+Enter