Red Hot Chili Peppers - Woodstock Intro Bass Solo
Submitted By: Misery
EMail: [email protected]


[email protected]|
D|-------5-7-^7^--5-^7^--5-^7^-----------------------------------|
A|---5h7------------------------7-5----7--5----------------------|
E|-0---------------------------------7-------7--6-5-3----^6-3-0-0|

G|-------------------------12---12-14-^15^p14--------16--18--19~~~~--|
D|---------12----12-13-14----14-----------------16/17--17--17--17~~--|
A|12-13-14----14-----------------------------------------------------|
E|----------------------------------------------------------------0--|

G|-----------------------------------------------|
D|-----------------------------------------------|
A|--5-5-5--4-4-4--------------3-2----------------|
E|0---------------5-3-0-2-3-0-----0-3-2-0--------|

G|---------------------------------------------------------------|
D|--------------5-7-^8--7-10-9-7---------------------------------|
A|-------5-6-7------------------9-^10^-9-7-----------------------|
E|5-6-7------------------------------------10|8-8|7-7|3--3-+2-2-0|

G|-------------------------------------|
D|-------------------------------------|
A|-------------------------------------|
E|-0-0-0-0^12^-0^12^-0^12^-0^15^-0^15^-|

G|------12-11-------------------------------------------------------------------|
D|14--12------9----------------------------------------------------------0-2----|
A|--14-----------10/9-7-7/5-3-4-4-4-4-4-4В»----------------------------2--------2|
E|--------------0----------------------------5/3-3---5-6-^6^--3-^6^--3-------3--|

G|---------------7------------7--6-4--2----------|
D|---------5-7h9---9-8-5-7--5----------5-4--0--2-|
A|-----5h7---------------------------------------|
E|-3-0-------------------------------------------|

G|--------|--------|--------|-------|------|
D|2-2-2-2-|2-2-2-2-|2-2-2-2-|2-2-2-2|-2-2--| 
A|--------|--------|--------|-------|------|
E|--------|--------|--------|-------|-----0|

G|-------------------------------------------------|  }
D|-12h14-14--12h14-14--12h14-14--12h14-------------|  |
A|--------------------------------------14-13-12-10|  |
E|-------------------------------------------------|  | 
                                                      |3x           
G|------------------------------------------------|   |   
D|-12h14-14--12h14-14--12h14-14-------------------|   |
A|------------------------------14-13-12-10-------|   |
E|-------------------------------------------12-10|   }

G|-------------------------------------------------|
D|-12h14-14--12h14-14--12h14-14--12h14-------------|
A|--------------------------------------14-13-12-10|
E|-------------------------------------------------|

G|-------------------------------------------------------|
D|-12h14-14--12h14-14--12h14-14--------------------------|
A|------------------------------14-13-12-10--------------|
E|-------------------------------------------12-10--8-7-3|


Текст, аккорды и табулатура для песни "Woodstock Bass", исполняет "Red Hot Chili Peppers".
Используемые в песне аккорды можно найти в разделе Как брать аккорды. Аккорды для шестиструнной гитары. Другие песни можно найти на нашем сайте, воспользовавшись алфавитным указателем вверху страницы.


 
Ошибка в тексте? Выделите ошибку и нажмите Ctrl+Enter