The Greeting Song
by the Red Hot Chili Peppers
From album BloodSugarSexMagik
Tabbed by Martin Peters
Bass
Moderately fast

Bass figure 1:

G-|--------------------|----------------------|
D-|--------------------|----------------------|
A-|-0--x-0--0--3-3-3-3-|-0---3--0--0--0-0-0-0-|
E-|--------------------|----------------------|

Verse interlude:
G-|--------------------|-------------------|-------------------|
D-|------0--2--2-3-4--|------0--2--2-3-4-|------0--2--2-3-4-|
A-|-2--x---------------|-2--x--------------|-2--x--------------|
E-|--------------------|-------------------|-------------------|

G-|---------------------|
D-|------0--2--2-3--4--|
A-|-2--x----------------|
E-|---------------------|

Pre-chorus:
G-|--------------------|-------------------|-------------------|
D-|------0--2--2-3-4--|------0--2--2-3-4-|------0--2--2-3-4-|
A-|-2--x---------------|-2--x--------------|-2--x--------------|
E-|--------------------|-------------------|-------------------|

G-|---------------------------------|
D-|-5h7-7-7-7--7-7-5h7-7-7-7-7--7-7-|
A-|---------------------------------|
E-|---------------------------------|

Chorus: (Repeat 4 times)
G-|-------------------|-------------------|
D-|-7--7----5-7--7----|-5--5---4--4--0-2--|
A-|------0---------0--|------0------------|
E-|-------------------|-------------------|

Guitar solo: (Repeat 2 times)
G-|--------------------|----12---12--10--------|-----------------------|
D-|----------------10--|-10-------------12--10-|-----------------------|
A-|-8--8-10/12--12-----|-----------------------|-12---12--11---11--10--|
E-|--------------------|-----------------------|-----------------------|

G-|------------------|--------------------|----10h12--12--10h12p10------|
D-|------------------|----------------10--|-10--------------------12----|
A-|-10--9---9--8--7--|-8---8--12---12-----|--------------------------12-|
E-|------------------|--------------------|-----------------------------|

G-|----------------------|------------------|
D-|----------------------|------------------|
A-|-12---12--11---11--10-|-10--9---9--8--7--|
E-|----------------------|------------------|

G-|-------------------------|--------------------|
D-|-------------------------|--------------------|
A-|-5--5--5--4--4--4--3--3--|-3--2--2--2--1---0--|
E-|-------------------------|--------------------|
Repeat 3 times

G-|-------------------------|-------------------------|
D-|-------------------------|-------------------------|
A-|-6--6--6--5--5--5--4--4--|-4--3--3--3--2--2--1--1--|
E-|-------------------------|-------------------------|

Ending:
G-|-------------------|------------------|
D-|-9---9----7-9--9---|-7---7--6--6------|
A-|-------9---------9-|-------------7-9--|
E-|-------------------|------------------|

G-|-------------------|--------------------|
D-|-9---9----7-9--9---|-7---7--6--6--------|
A-|-------9---------9-|-------------7-9--0-|
E-|-------------------|--------------------|

G-|-------------------|-------------------|
D-|-7--7----5-7--7----|-5--5---4--4--0-2--|
A-|------0---------0--|------0------------|
E-|-------------------|-------------------|

G-|-------------------|-------------------|------|
D-|-7--7----5-7--7----|-5--5---4--4--0-2--|------|
A-|------0---------0--|------0------------|-0----|
E-|-------------------|-------------------|------|


Текст, аккорды и табулатура для песни "The Greeting Song", исполняет "Red Hot Chili Peppers".
Используемые в песне аккорды можно найти в разделе Как брать аккорды. Аккорды для шестиструнной гитары. Другие песни можно найти на нашем сайте, воспользовавшись алфавитным указателем вверху страницы.


Слушать онлайн The Greeting Song


Red Hot Chili PeppersThe Greeting Song на Яндекс.Музыке


 
Ошибка в тексте? Выделите ошибку и нажмите Ctrl+Enter