Эту песню можно играть на разных ладах, но звучит она одинаково.
На концерте RHCP, Фрусчианте начинал играть с 3-го и 5-го лада.
                                                                  Good Luck.
 

Вступление:
E|----5----5----5----5---------------------------------------| 
B-----------5-5/6--6---6---6---65---------------|
G------------------------------------------------|
D|-3----3----3----3------------------------------------------|
A-----------3-3/5----5---5---5---3--3-----------|
E------------------------------------------------|

E|----5----5----5----5-3-------------------------------------|
B-------------5/6----8p6-8p6---------------------|
G------------------------------------------------|
D|-3----3----3----3------------------------------------------|
A-------------3/5--------------------------------|
E------------------------------------------------|

Стих 1
Scar Tissue. . .  
E|----5----5----5----5---------------------------------------| 
B-----------5-5/6--6---6---6---65---------------|
G------------------------------------------------|
D|-3----3----3----3------------------------------------------|
A-----------3-3/5----5---5---5--3--3------------|
E------------------------------------------------|

E|----5----5----5-8------------------------------------------|
B----------10---10---10-8-6-5--------------------|
G------------------------------------------------|
D|-3----3----3-----------------------------------------------|
A------------------------------------------------|
E--------8-10------------------------------------|

Хор 2x
F                              C   Dm     C 
With the birds I’ll share this lonely view

Стих 2
Push me up. . .
E|----5----5----5----5---------------------------------------| 
B-----------5-5/6--6---6---6---65---------------|
G------------------------------------------------|
D|-3----3----3----3------------------------------------------|
A-----------3-3/5----5---5---5--3--3------------|
E------------------------------------------------|

E|----5----5----5---10-8------------13-12-10-8---------------|
B------------8/10-10-10--------------------------|
G------------------------------------------------|
D|-3----3----3----3------------------------------------------|
A------------------------------------------------|
E--------------(10)(10)--------------------------|

Хор 3x

Соло 1
E------------------------------------------------|
B|---1310---108---8/10-10---10/12/13-----------------------|
G------------------------------------------------|
D------------------------------------------------|
A------------------------------------------------|
E------------------------------------------------|

Стих 3
Blood loss in. . . 
E|----5----5----5----5---------------------------------------|
B-----------5-5/6--6---6---6h8-6h8---------------|
G------------------------------------------------|
D|-3----3----3----3------------------------------------------|
A-----------3-3/5----5---5-----------------------|
E-----------------------------------8------------|

E|----5----5----5---8----------------------------------------|
B---------8-8/10-10-10-12-13-12-10---------------|
G------------------------------------------------|
D|-3----3----3----3------------------------------------------|
A------------------------------------------------|
E------------(10)(10)----------------------------|

Хор 2x 
Стих 4
Soft spoken with a. . .
E|----5----5----5----5---------------------------------------| 
B-----------5-5/6--6---6---6---65---------------|
G------------------------------------------------|
D|-3----3----3----3------------------------------------------|
A-----------3-3/5----5---5---5--3--3------------|
E------------------------------------------------|

E|---5----5----5----5--8------------12-10--------------------|
B------------8/10-10-10-------13-10--------------|
G------------------------------------------------|
D|-3----3----3----3------------------------------------------|
A------------------------------------------------|
E--------------(10)(10)--------------------------|

Хор 3x

Соло 2
E------------------------------------------------|
B|--13/15---171310--------10-108--------1310-------------|
G------------------------------------------------|
D------------------------------------------------|
A------------------------------------------------|
E------------------------------------------------|

E-------------------------------------10/12/13---|
B|--1315---171310--------10/138------1310---------------|
G------------------------------------------------|
D------------------------------------------------|
A------------------------------------------------|
E------------------------------------------------|

Стих 5
Scar Tissue. . .
E|----5----5----5----5---------------------------------------|
B-----------5-5/6--10---10---10---10-------------|
G------------------------------------------------|
D|-3----3----3----3------------------------------------------|
A-----------3-3/5--------------------------------|
E------------------10---10---10--/8--------------|

E|----5----5----5-8------------------------------------------|
B------------10---10---10-8-6-5------------------|
G------------------------------------------------|
D|-3----3----3-----------------------------------------------|
A------------------------------------------------|
E--------8-8/10----------------------------------|

Хор 3x
Соло

E|--/17—1715---/1712---12/1310---8/108/10—1085--------|
B------------------------------------------------|
G------------------------------------------------|
D------------------------------------------------|
A------------------------------------------------|
E------------------------------------------------|

E|--5/8-----------------------------------------------------|
B|------8---8/1210---------/10----10--10-10-----------------|
G---------7/97-------------------7/97--7/95---| 
D------------------------------------------------|
A------------------------------------------------|
E------------------------------------------------|

E------1312-12----------------------------------|
B|----------/10-------------13/1510--/138-(8)/10-----------|
G|--5/7-----------------------------------------------------|
D|------7----------------------------------------------------|
A------------------------------------------------|
E------------------------------------------------|

                                                    Все!!!


Текст, аккорды и табулатура для песни "Scar Tissue", исполняет "Red Hot Chili Peppers".
Используемые в песне аккорды можно найти в разделе Как брать аккорды. Аккорды для шестиструнной гитары. Другие песни можно найти на нашем сайте, воспользовавшись алфавитным указателем вверху страницы.


Слушать онлайн Scar Tissue


Red Hot Chili PeppersScar Tissue на Яндекс.Музыке


 
Ошибка в тексте? Выделите ошибку и нажмите Ctrl+Enter