RED HOT CHILIPEPPERS

ROADTRIPPIN'

[email protected]

Should be correct :) let me know if ya got more of the riffs in end of the song

Riff 1
   Em				   C		B
e|-----3--------3---------3-----|----------------------------------------------------------|
b|----------0--------0----------|--5-------5----4----4-------------------------------------|
g|------------------------------|----0-------0----0----------------------------------------|
d|-----2------2----2---------2--|----------------------------------------------------------|
a|------------------------------|--3----3-------2------------------------------------------|
E|--0----0------0------0--------|------------------------3--2------------------------------|

Riff 2
    Am			B		 C		  G/D
e|--0---------0-----|-----------------|----------------|--7---------7---------------------|
b|-------1----------|---3----3----3---|--5----5----5---|--------8-------------------------|
g|-----2---------2--|------0--------0-|-----0--------0-|-----7--------7-------------------|
d|------------------|-----------------|----------------|--0-------0-----------------------|
a|--0------0--------|---2------2------|--3------3------|----------------------------------|
E|------------------|-----------------|----------------|----------------------------------|


(Riff 1 + intro)
Road trippin? with my two favorite allies
Fully loaded we got snacks and supplies
It?s time to leave this town
It?s time to steal away
Let?s go get lost
Anywhere in the U.S.A.

Let?s go get lost
Let?s go get lost

Chorus:
Blue you sit so pretty
West of the one
Sparkles light with yellow icing
Just a mirror for the sun
Just a mirror for the sun
Just a mirror for the sun (Riff 2)

These Smiling eyes are just a mirror for

(Riff 1)
So much as come before those battles lost and
won
This life is shining more forever in the sun
Now let us check our heads
And let us check the surf
Staying high and dry?s
More trouble than it?s worth
In the sun

Just a mirror for the sun
Just a mirror for the sun
Just a mirror for the sun

These Smiling eyes are just a mirror for

In Big Sur we take some time to linger on
We three hunky dory?s got our snakefinger on
Now let us drink the stars
It?s time to steal away
Let?s go get lost
Right here in the U.S.A

Chorus

These smiling eyes are just a mirror for
These smiling eyes are just a mirror for
Your smiling eyes are just a mirror for


Текст, аккорды и табулатура для песни "Roadtripping", исполняет "Red Hot Chili Peppers".
Используемые в песне аккорды можно найти в разделе Как брать аккорды. Аккорды для шестиструнной гитары. Другие песни можно найти на нашем сайте, воспользовавшись алфавитным указателем вверху страницы.


 
Ошибка в тексте? Выделите ошибку и нажмите Ctrl+Enter