Tabed by: Юрьев Леша, Matt Sauls, Roman Duvdevany, Daniel Routman 
Solo by Keith Barron 

Intro/Verse:

    Dsus2       Asus4/F         G             Em7/5+
e:-------0--------------0-----------3-----------------0-----|
B:-------3--------------3-----------3-----------------3-----|
G:----2-----------0-h2-----2-----0-----------------0-----0--|
D:-0--------0--3--------------------------------2-----------|
A:----------------------------2--------2--2-h3--------------|
E:----------------------------------------------------------|
     My Friends are so depressed.....                


Middle Part:
E:----------------------------------------------------|
B:----------------------------------------------------|
G:--9-9-9-9-9-9-9-9--7-7-7-7-7-7-7-7--6-6-6-6-6-6-6-6-|
D:--9-9-9-9-9-9-9-9--7-7-7-7-7-7-7-7--6-6-6-6-6-6-6-6-|
A:--7-7-7-7-7-7-7-7--5-5-5-5-5-5-5-5--4-4-4-4-4-4-4-4-|
D:----------------------------------------------------|
	Imagine me taught by tragedy...

E:----------------------------------------------------|
B:----------------------------------------------------|
G:--5-5-5-5-5-5-5-5-----------------------------------|
D:--5-5-5-5-5-5-5-5--5-5-5-5-5-5-5-5--4-4-4-4-4-4-4-4-|
A:--3-3-3-3-3-3-3-3--5-5-5-5-5-5-5-5--4-4-4-4-4-4-4-4-|
D:-------------------5-5-5-5-5-5-5-5--4-4-4-4-4-4-4-4-|
		     Release in peace...

E:-----------------------------------|
B:-----------------------------------|
G:-----------------------------------|
D:--3-3-3-3-3-3-3-3--3-3-3-3-3-3-3-3-|
A:--3-3-3-3-3-3-3-3--3-3-3-3-3-3-3-3-|
D:--3-3-3-3-3-3-3-3--3-3-3-3-3-3-3-3-|

End Part:
E:-------------------------------------0-----------------|
B:------3-------3----------------------3-----------------|
G:----2-------2---------0---------0----2-----------------|
D:--0-----0-3-----3---0---------0---0--0---0-------0-----|
A:------------------2-----2-2h3----------0---0---2-------|
D:---------------------------------------------3-----3-0-|

Dsus2   - xx0230
Asus4/F - xx3230
G       - 320033
Em7/5+  - x32030

My friends are so depressed
I feel the question
Of your loneliness
Confide... cause I´ll be on your side
You know I will, you know I will      
 
X Girlfriend called me up
Alone and desperate
On the prison phone
They want... to give her 7 years
For being sad

Chorus :
C  G   Am
I love all of you
C     D      A 
Hurt by the cold
C   G        Am
So hard and lonely too
C     D          A
When you don´t know yourself

My friends are so distressed
And standing on
The brink of emptiness
No words... I know of to express
This emptiness

Chorus :
Imagine me taught by tragedy
Release is peace
I heard a little girl
And what she said
Was something beautiful
To give... your love
No matter what

SOLO:
e------------------------------------------------I    
b------------------------------------------------I
g--9/11-11-11-11-9-7----7/9---7---5----5/-7-I     
d------------------------------------------------I
a--7/-9--9--9--9-7-5----5/7---5---3----3/-5-I      
e------------------------------------------------I
   s  s  s  s  s  s  e    * e    e    e    s  s

(*)These are grace notes. Don´t hit notes after slide
                          let them flow :)

e---------------------------------------------I   
b---------------------------------------------I   
g-4------------4--4--4/-5--5--5--5/-7--7--7--I   
d---------------------------------------------I   
a-2------------2--2--2/-3--3--3--3/-5--5--5--I   
e---------------------------------------------I
   q+e          s  s  s  s  s  s  s  s  s  s


e--------------------------------------------- 
b--------------------------------------------- 
g--7-11-11-11-11-11-11-11-11--14--14--14--14-- 
d--------------------------------------------- 
a--5--9--9--9--9--9--9--9--9--12--12--12--12--                  
e--------------------------------------------- 
   s  s  s  s  s  s  s  s  s  s   s   s   s

e--------------I-----------------------------------------I
b--------------I--------------------13b(15)--13b(15)-----I
g--14--14/-16-I-12------------0---------------------0--I
d--------------I----------------0---------------------0--I
a--12--12/-14-I-10------10-----------------------------I
e--------------I-----------------------------------------I
   s   s   s      q       e     e   q        e+s      s   


e-------------------------------------------------I   
b-------------------------------------------------I   
g--9/11-11-11-11-9-7----7/-9---7---5----5/-7-I   
d-------------------------------------------------I   
a--7/-9--9--9--9-7-5----5/-7---5---3----3/-5-I    
e-------------------------------------------------I   
   s  s  s  s  s  s  e    *  e    e    e    s  s


e--------------------------------------------I
b--------------------------------------------I
g-4------------4----4/-5--5--5--5/-7--7--7--I 
d--------------------------------------------I
a-2------------2----2/-3--3--3--3/-5--5--5--I
e--------------------------------------------I 
   q+e          e    s  s  s  s  s  s  s  s


e---------------------------------------------  
b---------------------------------------------  
g--7/11-11-11-11-11-11-11-11/-14--14--14--14--  
d---------------------------------------------   
a--5/-9--9--9--9--9--9--9--9/-12--12--12--12--  
e---------------------------------------------
   s  s  s  s  s  s  s  s  s  s   s   s   s


e----------I------------------------------------I
b----------I------------------------------------I
g--14/-16-I-12------------12---5-------------I
d----------I------------------------------------I
a--12/-14-I-10------------10---3-------------I
e----------I------------------------------------I
   s   s      q+e           e     h



b--10--10--10--10--10--10--10--10--I        
g--11--11--11--11--11--11--11--11--I        

b--10--10--10--10--10--10--10--10--I
g--12--12--12--12--12--12--12--12--I

b--10--10--10--10--10--10--10--10--I
g--10--10--10--10--10--10--10--10--I

b--10--10--10--10--10--10--10--10--I
g---9---9---9---9---9---9---9---9--I

b--10--10--10--10--10--10--10--10--I
g--11--11--11--11--11--11--11--11--I

b--10--10--10--10--10--10--10--10--I
g--12--12--12--12--12--12--12--12--I


b--10--10--10--10--10--10--10--10--I
g--10--10--10--10--10--10--10--10--I

b--5---5---5---5---5---5---5---5---I
g--5---5---5---5---5---5---5---5---I


Текст, аккорды и табулатура для песни "My Friends", исполняет "Red Hot Chili Peppers".
Используемые в песне аккорды можно найти в разделе Как брать аккорды. Аккорды для шестиструнной гитары. Другие песни можно найти на нашем сайте, воспользовавшись алфавитным указателем вверху страницы.


Слушать онлайн My Friends


Red Hot Chili PeppersMy Friends на Яндекс.Музыке


 
Ошибка в тексте? Выделите ошибку и нажмите Ctrl+Enter