This took me a while, it isnt perfect but bare with me.

tuning-standard-EADGBe

b=bend
h=hammer on
p=pull off
^=bend and bend back then bend again and bend back again(all within one pick)
v=vibrato
bu=bend and slowly unbend
/=slide up


1-------------------------------------------------------------------
2-12------12---12---12----------------------------------------------
3---14b(16)-14b--14b--14-12-14-12--12-14b-14b-12v-12-14--12-14-12---
4--------------------------------14------------------------------14-
5-------------------------------------------------------------------
6-------------------------------------------------------------------

1----------------------------------------------------------------
2----------------------------------------------------------------
3-------------------14bp12--------14bp12------------15---15------
4-14v-14-12-14-12-14------14p12h14------14p12h14-14b--14b--14bu--
5----------------------------------------------------------------
6----------------------------------------------------------------

1----------------------------------------------------------
2----------------------------------------------------------
3-14^(16)--12^(14)--11^(12)--------------------------------
4---------------------------9-12-9-9-----------------------
5----------------------------------------------------------
6----------------------------------------------------------

1-----------------------------------------12----------------
2-----------------------------------------x-----------------
3------------7--7-------------------------9-----------------
4-----7-8b(9)-8b-7--7------------7/14-14--9-----------------
5-7-10------------10-10-7bu(9)--7---------7-----------------
6----------------------------------------0------------------

thanx for taking the time to read this, i worked real hard on it.
for any questions e-mail me at [email protected]


Текст, аккорды и табулатура для песни "I Could Have Lied (solo ver 2)", исполняет "Red Hot Chili Peppers".
Используемые в песне аккорды можно найти в разделе Как брать аккорды. Аккорды для шестиструнной гитары. Другие песни можно найти на нашем сайте, воспользовавшись алфавитным указателем вверху страницы.


 
Ошибка в тексте? Выделите ошибку и нажмите Ctrl+Enter