Red Hot Chili Peppers
I Could Have Lied Off The Map Version
This isn't perfect but close enough, most of this is from memory..
E-mail: [email protected]

Riff A
G|-------------------------------------------------------|
D|-------------------------------------------------------|
A|-2-2--2-2----------------------------------------------|
E|-----------5-5--3-3------------------------------------|

Riff A Variations
G|-9/11-9----9------9h11p9-------------9-----------------|
D|--------11---11-9--------9-7-9-9-9-7---5--------------|
A|-------------------------------------------------------|
E|-------------------------------------------------------|

G|-------------------------------------------------------|
D|-------------------------------------------------------|
A|-2-2-4-4-2-2-------------------------------------------|
E|-------------5-5-3-3-----------------------------------|

Riff B
G|-------------------------------------------------------|
D|-------------------------------------------------------|
A|-2-2--5-5-5-5------------------------------------------|
E|--------------5-5--3-3---------------------------------|

Riff B Variation
G|-------------------------------------------------------|
D|-------------------------------------------------------|
A|-2-0-2--4-4-5-4-5-4-5-4--------------------------------|
E|------------------------5-5-5-5-5--3-3-3---------------|

Chorus
G|---------------12-12-12----12--------------------------|
D|-------------------------------------------------------|
A|-7-7-7--10-10-----------10----10-----------------------|
E|----------------------------------10-10-10-8-8-8-------|

G|-------------------------------------------------------|
D|-------------------------------------------------------|
A|-7-7-7--10-10-10-10-12-10-12-10------------------------|
E|--------------------------------10-10-10--8------------|

Solo
G|-------------------------------------------------------|
D|-----------------------------7---------5-5-5-5---5-----|
A|-----------------7-9-7---------7-----------------------|
E|-7-5-7--5-7-9-10-------9-7-5-----5-3-3---------3-------|

G|-------------------------------------------------------|
D|-------------7-----------------------------------------|
A|-------5-7-9---9-7---7---------------------------------|
E|-7-5-7-------------5---5-3-3-3-3-----------------------|

G|-------------------------------------------------------|
D|-------------------------------------------------------|
A|-------------------------------------------------------|
E|-5-7--5-7--5-5--5-3-3----------------------------------|

G|-------------------------------------------------------|
D|-7h8h9-------------------------7-----------------------|
A|-------7h8h9/10--7---------------7---------------------|
E|------------------8-9/109-7-5-----5-3-3-3-3-3---------|

Last Chorus

G|-------------------------------------------------------|
D|-------------------------------------------------------|
A|-7-7-7-10-10-10-10-10----------------------------------|
E|----------------------10-10-10-8-8-8-------------------|

G|-------------------------------------------------------|
D|-------------------------------------------------------|
A|-7-7-7-10-10-10-10-10----------------------------------|
E|----------------------10-10-10-8--7-8-7-8-5-3-1--------|

G|---------------12----12--------------------------------|
D|-------------------------------------------------------|
A|-7-7-7-7-10-10----10-----------------------------------|
E|------------------------10-10-10-8-8-8-----------------|

G|-------------------------------------------------------|
D|-------------------------------------------------------|
A|-7-7-7-7-10-10-10-10-10--------------------------------|
E|------------------------10-10-10-8-8-8-----------------|

Outro
G|-------------------------------------------------------|
D|-------------------------------------------------------|
A|-7-7--10-10---------------7-7--10-10-------------------|
E|-------------10-10--8-8---------------10-10--8-8-------|

G|-------9---------------12/1412------------------------|
D|---9-------9--------12---------------------------------|
A|-7---7---7---7---10-------------10---------------------|
E|-------------------------------------------------------|

G|----------11-------------------------------------------|
D|-------12----12--------------10-10-10------------------|
A|----12----------12--------10----------10---------------|
E|-10----------------10---8----------------8-------------|

G|-------9---------------12/1412-----------11-----------|
D|---9-------9--------12-----------------12----12--------|
A|-7---7---7---7---10-----------------12----------12-----|
E|---------------------------------10----------------10--|

G|-------------------------------------------------------|
D|-------------------------------------------------------|
A|-------------------------------------------------------|
E|-8--7-5-3-1--0-----------------------------------------|


Текст, аккорды и табулатура для песни "I Could Have Lied Live", исполняет "Red Hot Chili Peppers".
Используемые в песне аккорды можно найти в разделе Как брать аккорды. Аккорды для шестиструнной гитары. Другие песни можно найти на нашем сайте, воспользовавшись алфавитным указателем вверху страницы.


 
Ошибка в тексте? Выделите ошибку и нажмите Ctrl+Enter