Song:   Fortune Faded
Artist: Red Hot Chili Peppers
Album:  Upcoming new album

Hi,
I've been searching a long time to find a tab from this song
but I couldn't find it so I decided to try it (FOR THE FIRST TIME) by myself..
So I hope you like it and if you don't...remember that I figured out this song from a
live version (Utrecht, Holland 23-8-2001). 
Feel free to contact me with corrections @ [email protected]

                         Intro
   e :---------------------------------------------------|
   B :--------9------------------------------------------|
   G :--------11-----------------------------------------|
   D :--*32x*-11-----------------------------------------|
   A :---------------------------------------------------|
   E :---------------------------------------------------|

                         Riff 1
  /e :--14-------14-------------------------9------------|
 / B :12---14-12----14-12--10-11-10-11-10----------------|
/  G :-----------------------------------11--------------|
   D :---------------------------------------------------|
   A :---------------------------------------------------|
   E :---------------------------------------------------|
1x
   e :--14-------14--------------------------------------|
   B :12---14-12----14-12--10~----10~--------------------|
   G :------------------------11~----11~-----------------|
  D :---------------------------------------------------|
  A :---------------------------------------------------|
  E :---------------------------------------------------|


                         Verse
                V  ^  V   V  ^  V
  /e :---------------------------------------------------|
 / B :-----------12-12-12--12-12-12----------------------|
   G :11-11-11~--14-14-14--14-14-14----------------------|
2x D :12-12-12~--14-14-14--14-14-14----------------------|
  A :12-12-12~------------------------------------------|
  E :---------------------------------------------------|


                          Riff 2   
  /e :--14-------14-------------------------9~-----------|
 / B :12---14-12----14-12--10-11-10-11-10----------------|
/  G :-----------------------------------11--------------|
   D :---------------------------------------------------|
   A :---------------------------------------------------|
   E :---------------------------------------------------|
1x
   e :--14-------14---------------9~---------------------|
   B :12---14-12----14-12--10~---------------------------|
   G :------------------------11~------------------------|
  D :---------------------------------------------------|
  A :---------------------------------------------------|
  E :---------------------------------------------------|


                           Chorus
  /e :---------------------------|------------------------|
 / B :------12-12-12-7-7-7-------|-------12-12-7-7--------|
   G :11-11-14-14-14-9-9-9-9-9-9-|-11-11-14-14-9-9-9-9----|
2x D :12-12-14-14-14-9-9-9-9-9-9-|-12-12-14-14-9-9-9-9----|
  A :12-12----------------7-7-7-|-12-12-----------7-7----|
  E :---------------------------|------------------------|


                         Riff 1
  /e :--14-------14-------------------------9------------|
 / B :12---14-12----14-12--10-11-10-11-10----------------|
/  G :-----------------------------------11--------------|
   D :---------------------------------------------------|
   A :---------------------------------------------------|
   E :---------------------------------------------------|
1x
   e :--14-------14--------------------------------------|
   B :12---14-12----14-12--10~----10~--------------------|
   G :------------------------11~----11~-----------------|
  D :---------------------------------------------------|
  A :---------------------------------------------------|
  E :---------------------------------------------------|


                         Verse
                V  ^  V   V  ^  V
  /e :---------------------------------------------------|
 / B :-----------12-12-12--12-12-12----------------------|
   G :11-11-11~--14-14-14--14-14-14----------------------|
2x D :12-12-12~--14-14-14--14-14-14----------------------|
  A :12-12-12~------------------------------------------|
  E :---------------------------------------------------|


                          Riff 2   
  /e :--14-------14-------------------------9~-----------|
 / B :12---14-12----14-12--10-11-10-11-10----------------|
/  G :-----------------------------------11--------------|
   D :---------------------------------------------------|
   A :---------------------------------------------------|
   E :---------------------------------------------------|
1x
   e :--14-------14---------------9~---------------------|
   B :12---14-12----14-12--10~---------------------------|
   G :------------------------11~------------------------|
  D :---------------------------------------------------|
  A :---------------------------------------------------|
  E :---------------------------------------------------|


                           Chorus
  /e :---------------------------|------------------------|
 / B :------12-12-12-7-7-7-------|-------12-12-7-7--------|
   G :11-11-14-14-14-9-9-9-9-9-9-|-11-11-14-14-9-9-9-9----|
2x D :12-12-14-14-14-9-9-9-9-9-9-|-12-12-14-14-9-9-9-9----|
  A :12-12----------------7-7-7-|-12-12-----------7-7----|
  E :---------------------------|------------------------|
   
   BASS SOLO, after a while Guitar comes in with something like this:

   e :---------------------------------------------------|
   B :--------9------------------------------------------|
   G :--------11-----------------------------------------|
   D :--*32x*-11-----------------------------------------|
   A :---------------------------------------------------|
   E :---------------------------------------------------|


                           Chorus
  /e :---------------------------|------------------------|
 / B :------12-12-12-7-7-7-------|-------12-12-7-7--------|

   G :11-11-14-14-14-9-9-9-9-9-9-|-11-11-14-14-9-9-9-9----|
3x D :12-12-14-14-14-9-9-9-9-9-9-|-12-12-14-14-9-9-9-9----|
  A :12-12----------------7-7-7-|-12-12-----------7-7----|
  E :---------------------------|------------------------|

                           Ending
  /e :---------------------------|------------------------|
 / B :------12-12-12-7-7-7-------|-------12-12------------|
   G :11-11-14-14-14-9-9-9-9-9-9-|-11-11-14-14------------|
1x D :12-12-14-14-14-9-9-9-9-9-9-|-12-12-14-14------------|
  A :12-12----------------7-7-7-|-12-12------------------|
  E :---------------------------|------------------------|


And that's all, the timing is probably not right but I think You'll
be able to figure that out yourself when you play along with the song.

Grtz,

Matthijs 


Текст, аккорды и табулатура для песни "Fortune Faded", исполняет "Red Hot Chili Peppers".
Используемые в песне аккорды можно найти в разделе Как брать аккорды. Аккорды для шестиструнной гитары. Другие песни можно найти на нашем сайте, воспользовавшись алфавитным указателем вверху страницы.


Слушать онлайн Fortune Faded


Red Hot Chili PeppersFortune Faded на Яндекс.Музыке


 
Ошибка в тексте? Выделите ошибку и нажмите Ctrl+Enter