Red Hot Chili Peppers, BloodSugarSexMagik
Frank Verwijs  [email protected] 
The Tab already in this argive is wrong; this tab is from the guitartabbook of BSSM; but beware; many of the tabs in that book are wrong; for emaple Breaking The Girl. mail me if you want the right tabs of this great LP. Anyway.....

intro
------------------------------------------
------------------------------------------
-9---12-14/16-12/14-7/9---Palm mute-------
-7---10-12/14-10/12-5/7-7-7-7-7-----------
------------------------------------------
------------------------------------------

------------------------------------------
------------------------------------------
-9---11-12/14-11/12-6/7-------------------
-7---9--10/12--9/10-4/5-5-5-5-5-----------
------------------------------------------
------------------------------------------

verse

A-0-0-0-0-0-0-0-0-0-0-0-0-0-0-0-0-0

with wah, stress 3th 7th, 11th notes etc.

Riff

--------------------------------------------
--------------------------------------------
--------------------------7-----------------
-----------------------------9-8-7----------
-----------7---5--7~~~~~~-----------10------
-0---0--0-----------------------------------

--------------------------------------------
--------------------------------------------
--------------------------------------------
--------------------------------------------
-----------7---5--7--~~---------4---5------
-0---0--0------------------3--5-------------

substitute:

--------------------
--------------------
---------13---11--13
---------14---12--14
--------------------
0---0--0------------

-----------------13---------------------------
-----9--9--9--9--13 trem. -----12-12-12-12-12-
----10-10-10-10--13       -----12-12-12-12-12-
----10-10-10-10----------------12-12-12-12-12-
-----8--8--8--8----------------10-10-10-10-10-
----------------------------------------------

G----------12---------------------12h14-12----------
D-14-12-14-----14-12-14---14-12-14---------14-12-14-

ending of interlude: 

G------12b(13)----------- wah-wah!!!!
D--------------14-12-14--



Текст, аккорды и табулатура для песни "Blood Sugar Sex Magik", исполняет "Red Hot Chili Peppers".
Используемые в песне аккорды можно найти в разделе Как брать аккорды. Аккорды для шестиструнной гитары. Другие песни можно найти на нашем сайте, воспользовавшись алфавитным указателем вверху страницы.


Слушать онлайн Blood Sugar Sex Magik


Red Hot Chili PeppersBlood Sugar Sex Magik на Яндекс.Музыке


 
Ошибка в тексте? Выделите ошибку и нажмите Ctrl+Enter