здесь только бас ко всей песне.
Это оригинал...
Естественно, если вам ничего не понятно, пишите мне на мыло - пришлю midi-файл

G--------|
D--------|
A--------|
E||--0s---------------|--0s---0s---0s---0s---|


                                                                        4x
|---7h9-9-7h9-9-7h9-9-7h9-7-------0-|--7h9-9-7h9-9-7h9-9-7-4-3---0------||
|*--------------------------9-8-7------------------7-----0-*||
|*-----------------------------------------------------7---*||
------------------------------------------------||


                                                                    
--------------------------|------10---12--------9--10--|
-------------------------------------------|
-------------------------------------------|
--3-----------------------|--3------------0--1---------|


                                                           
------10---12--------10-7-3--|------10---12--------9--10--|
----------------------------------------------|
----------------------------------------------|
--3------------0--1----------|--3------------0--1---------|


                                                            
------10---12-----------------|------10---12--------9--10--|
---------------------3-2-----------------------|
-------------------2-----2---------------------|
--3------------1-2---------1--|--3------------0--1---------|


                                                       
------10---12------------|------10---12--------9--10--|
------------------------------------------|
------------------------------------------|
--3------------8~---6~---|--3------------0--1---------|


                                                                             
------10---12--------------0-|--1------13--5----8----|--0------0--7------7--|
-----------------------1-3--------------------------|
----------------------------------------------------|
--1------------0-1--2-------------------------------|


                                                                       
---------13--1----5-----0------0--|--1------13--9----8----|
--3-------------------------------------------|
-----------------------|--3------3------------------------|
----------------------------------------------|


                                                                      
--0------0--7------7--|---------13--1----5-----0---------|
----------------------|--3--------------------------3~---|
----------------------------------|--3------3------------|
---------------------------------------------|


                                                                               
-------------------|------10---12--------9--10--|------10---12--------10---3--|
-------------------------------------------------0----|
------------------------------------------------------|
--3----------------|--3------------0--1---------|--3------------0--1----------|


                                                             
------10---12--------9--10--|------10---12------------------|
--------------------------------------3-2-3-2-3-|
------------------------------------1-----------|
--3------------0--1---------|--3------------1-3-------------|


                                                       
------10---12--------9--10--|------10---12------------|
------------------------------------------|
--------------------------------3~---1~---|
--3------------0--1---------|--3----------------------|


                                                           
------10---12--------9--10--|------10---12----------------|
---------------------------------------1-x-3--|
------------------------------------1---------|
--3------------0--1---------|--3-----------0-1------------|


                                                                       
--1------13--5----8----|--0------0--7------7--|---------13--1----5----|
----------------------------------|--3--------------------|
----------------------------------------------|
----------------------------------------------|


                                                                      
------------0------0--|--1------13--5----8----|--0------0--7------7--|
---------------------------------------------|
--3------3-----------------------------------|
---------------------------------------------|


                                               
---------13--1----5-----0----9~---|
--3-------------------------------|
-----------------------|--3------3------------|
----------------------------------|


                                                                        4x
|---7h9-9-7h9-9-7h9-9-7h9-7-4-3-2-0-|--7h9-9-7h9-9-7h9-9-7-4-3-2-0------||
|*-----------------------------------------------------2-0-*||
|*---------------------------------------------------------*||
------------------------------------------------||


                                                           
------10---12--------9--10--|------10---12--12-10-6-7-----|
----------------------------------------------|
----------------------------------------------|
--3------------0--1---------|--3--------------------------|


                                                           
------10---12--------9--10--|------10---12--------10-9-3--|
----------------------------------------------|
----------------------------------------------|
--3------------0--1---------|--3------------0--1----------|


                                                            
------10---12--------9--10--|------10---12-----------------|
--------------------------------------3-2------|
------------------------------------1-----2----|
--3------------0--1---------|--3------------1-3---------1--|


                                                       
------10---12--------9--10--|------10---12------------|
------------------------------------------|
--------------------------------3~---1~---|
--3------------0--1---------|--3----------------------|


                                                            
------10---12--------9--10-------------------0-|
---------------------------------------3-1-3---|
--------------------------------1--3-2---------|
--3------------0--1---------|--3---1--0-1-3----------------|


                                                                           
--1------2----8h-9---2--|--0------------0-----0-----0--1-0----|
-------------------1------------0----|--3------3-----------3--|
--------------------------------------------------|
------------------------|------3---3--------------------------|


                                                                           
--0-----------------------------------------------|
----------------------------1--2------------------|
--3------3-----3-----1--|------0---0---------3-0--------------|
-------------3-----3----|--4----------------------|--3---3---3----3----3--|


                                                                              
-------------------------------------0--|--1---2---2----2----2---|
------------------------------0--1-3---------------1-|
-----------------0--1--2--|--3---3---3---------------------------|
--1--1--3--3--4--------------------------------------|


                                                                          
--0--------------------0-------------------------|
-----------------------|--3---3--x------3------|--1------------0--2-0----|
-----------------------------------|------3---3-----------3--|
------3---3----3----3----------------------------|


                                                                            
-----------------------------------------0--1-0----|
---------------1h-2-----------------|----------3--3---------3--|
---------------------0-----------------------------|
--4---3---3-------------|--3---3---3----3----3--|--1---1-------------------|


                                                    6x
----------------------------||
--1----------------||*--0-3-2-0--0--0--0--0--------*||
-------------------||*-----------------------0-3-0-*||
----------------------------||


                                                            
----0------------------------------------------|
--0---3-0--0--0--0--0--------|--0-3-2-0--0--0--0--0--------|
-----------------------0-3-0-------------0-3-0-|
-----------------------------------------------|


                                6x                              
--------------------|0--0--0--0--------|
|*--0-3-2-0--0--0--0--0--------*||--0-3-2-0--------------------|
|*-----------------------0-3-0-*-0-3-0-|
---------------------------|


                             
-----------2--2--2--2-2~---||
--0-3-2-0~-----------------||
---------------------------||
---------------------------||


Текст, аккорды и табулатура для песни "Around The World", исполняет "Red Hot Chili Peppers".
Используемые в песне аккорды можно найти в разделе Как брать аккорды. Аккорды для шестиструнной гитары. Другие песни можно найти на нашем сайте, воспользовавшись алфавитным указателем вверху страницы.


Слушать онлайн Around The World


Red Hot Chili PeppersAround The World на Яндекс.Музыке


 
Ошибка в тексте? Выделите ошибку и нажмите Ctrl+Enter