Куплеты исполняются перебором:

  Am                F
e|---------0-------|---------1-------|
B--2---|-----1-------1---|
G|---2---2---2---2-|---2---2---2---2-|
D------------|
A|-0---------------------|
E------|-1---------------|

  C                 E 
e|---------0-------|---------0-------|
B|-----1-------1---|-----0-------0---|
G|---0---0---0---0-|---1---1---1---1-|
D------------|
A|-3---------------------| 
E------|-0---------------|

(куплеты - перебором -бас32123-, припев - боем)
Am
На рестницах твоих
F
Не замечу снежинки я,
Dm
Лишь однитолько слезы 
E
У тебя на глазах.
Я отдал бы полжизни
За один только вечер,
Проведенный с тобой
В тишине и во тьмах.
             Am
 А ты такая нежная
            F
 Королева Снежная
             Dm
 Распустила волосы
              E
 По белым плечам.
 Распустила волосы, волосы
 И не слышно голоса,
 Потому что заняты
 Губы у тебя.

Ты была королевою,
Ты звалась недотрогою,
И все школьные годы 
Мы дрались за тебя.
А сейчас другая ты,
По рукам кочуешь ты,
Не могу поверить я,
Что любил тебя.

По бетону шатаясь,
На панель ты выходишь,
И за деньги влюбляясь,
Ты торгуешь собой.
Настоящей любви 
Ты уже не узнаешь.
Может быть на панели
Ты найдешь свой покой.


Текст, аккорды и табулатура для песни "Снежная королева", исполняет "Разные песни".
Используемые в песне аккорды можно найти в разделе Как брать аккорды. Аккорды для шестиструнной гитары. Другие песни можно найти на нашем сайте, воспользовавшись алфавитным указателем вверху страницы.


 
Ошибка в тексте? Выделите ошибку и нажмите Ctrl+Enter