Intro: (*)                                                                           
E----------------|
B----------------|
G----------------|
D|---2-----------------------|
A||--5----5---5----5--4------------------|
E5--|--2----2--2--2-0--2--5--|


                                                                            
---------------------------------------------------|
---------------------------------------------------|
---------------------------------------------------|
-------------2--------------------------2----------|
--2----4--5----5--4------------------|--5----5---5----5--4-----|
---------------------5--|--2--2--4--4--5--5-----------------5--|


                                                                            
---------------------------------------------------|
---------------------------------------------------|
---------------------------------------------------|
---------------------------2------------2----------|
------------------------|--2----4---5----5--4------------4-----|
--2----2--2--2-0--2--5-------------5--|--2----4--5----5-----5--|


                                                                             
----------------------------------------------------|
----------------------------------------------------|
----------------------------------------------------|
--------------2--------------------------2----------|
--5----5---5----5--4------------------|--2----4---5----5--4-----|
----------------------5--|--2----2--2--2-0--2--5-------------5--|


                         
-----------------------||
-----------------------||
-----------------------||
-----------------------||
-----------------------||
--2----2---2--0--2--2--||


Strophe (**) -> ------------------------|
		------------------------|
		------------------------|
		------------------------|
		|55555555555555555555555|44444444444444444444444|
		------------------------|

D		F#m
no sleep 
		     D                     F#m
no sleep untill I am done with finding the answer 
D		F#m
wont stop
		   D			F#m
wont stop before I find a cure for this cancer 
D		F#m
sometimes 
		D		  F#m
I feel I going down and so disconnected 
D		F#m
somehow 
		 D		F#m (F#5,F5,E5)  
I know that I am haunted to be wanted 

----------------> Refrain: 


Текст, аккорды и табулатура для песни "In The Shadows", исполняет "Rasmus".
Используемые в песне аккорды можно найти в разделе Как брать аккорды. Аккорды для шестиструнной гитары. Другие песни можно найти на нашем сайте, воспользовавшись алфавитным указателем вверху страницы.


 
Ошибка в тексте? Выделите ошибку и нажмите Ctrl+Enter