Tuned in E-A-D-G-B-E


Intro 1

E  |-----------------------------------------------------------------------|
B  |-----------------------------------------------------------------------|
G  |-----------------------------------------------------------------------|
D  |-------------------------------------7---------------------------------|
A  |5-5-5-7-5-4-0--------4-------0-2-4-5----5-4-0---------0----------------|
E  |---------------2-2-2---0-2--------------------2-2-4-4------------------|

Intro 2

E  |-----------------------------------------------------------------------|
B  |----------------------------------------------play this twice----------|
G  |-----------------------------------------------------------------------|
D  |--------------------------------------7--------------------------------|
A  |5-5-5-5-5-4-0-----------------0-2-4-5---5-4-0----------0-7-0-4-0-------|
E  |-----------------2-2-2-2-0-2---------------------2-4-------------------|

Chorus 1

E  |---------------------------------------------------------------|play 
B  |---------------------------------------------------------------|this a
G  |---------------------------------------------------------------|couple
D  |---------------------------------------------------------------|of times
A  |5-5-5-5-5-5-5-5-5-5-5-5-5-5-5-5-4-4-4-4-4-4-4-4-4-4-4-4-4-4-4-4|listen 
E  |---------------------------------------------------------------|to the 
                                                                    song
E  |-------------------|
B  |-------------------| then play this
G  |-------------------|
D  |4-3-2--------------|  
A  |4-3-2--------------|
E  |2-1----------------|

Chorus 2

E  |--------------------------------------|
B  |--------------------------------------|
G  |7-7-----------------4-4---------------|play this part twice
D  |7-7-8x---4-4--------4-4-8x----4-4-----|
A  |5-5------4-4-8x-----2-2-------4-4-8x--|
E  |--------2-2------------------2-2------|

E  |-----------|
B  |-----------|
G  |-----------|then play this
D  |4-4-6-6-7--|   
A  |4-4-6-6-7--|
E  |2-2-4-4-5--|

Order of playing the song:

Intro 1			
Intro2			
Chorus 1			
Chorus 2			
Intro 2			
Chorus 1		
Chorus 2
Chorus 1
Chorus 2
En then there is a part that i haven't figured out yet but you can play
the second chorus there if you want.
	
when you play the second chorus for the second time you must end like this:

E  --------------------
B  --------------------
G  --------------------
D  --------------------   
A  ----------0---------
E  2-2-4-4-------------


Текст, аккорды и табулатура для песни "In The Shadows", исполняет "Rasmus".
Используемые в песне аккорды можно найти в разделе Как брать аккорды. Аккорды для шестиструнной гитары. Другие песни можно найти на нашем сайте, воспользовавшись алфавитным указателем вверху страницы.


 
Ошибка в тексте? Выделите ошибку и нажмите Ctrl+Enter