Tabbed by : Vortex ( cem )
icq : 687299
mail : [email protected]
No comment.. It's clear..

Intro
e-----------------------------------------------------------------------|
b-----------------------------------------------------------------------|
g-----------------------------------------------------------------------|   
d-7-7--7---7---------------------4-6-7---7------------------------------|
a-5-5--5-7-5-7-6-4-4--4-2-2-4--7-2-4-5-7-5-7-6--4-4--6-6-7--------------|
E--------5---5-4-2-2--2-0-0-2--5-------5---5-4--2-2--4-4-5--------------|


Verse

e-----------------------------------------------------------------------|
b-----------------------------------------------------------------------|
g-----------------------------------------------------------------------|   
d-----------------------------------------------------------------------|
a-5-5--5-0-5-0-------------------2--4-5-0-5-----------------4-----------|
E--------------4-2-2--2-0-0-2--5------------5-4--2-4--5-4-5--5----------|

e-----------------------------------------------------------------------|
b-----------------------------------------------------------------------|
g-----------------------------------------------------------------------|   
d-----------------------------------------------------------------------|
a-5-5--5-0-5-0-------------------2--4-5-0-5-----------------------------|
E--------------4-2-2--2-0-0-2--5------------5-4--2-2--2-2-2--2----------|


clean and palmmute x3
e|--------------------------------|
B|--------------------------------|
G|--------------------------------|
D|--------------------------------|
A|55555555--------22222222--------|
E|--------22222222--------22222222|

Sometimes..
e|---------------------|--------------------------------|
B|---------------------|--------------------------------|
G|---------------------|--------------------------------|
D|---------2-----------|--------------------------------|
A|55555555--2-4444444--|--55555555----------------------|
E|---------------------|-----------2222---44444--55555--|

e|---------------------|-------------|
B|---------------------|-------------|
G|---------------------|-------------|
D|---------2-----------|-------------|
A|55555555--2-4444444--|--5555555----|
E|---------------------|-------------|
e|-------|
B|-------|
G|-------|
D|4-3-2--|
A|4-3-2--|
E|2-1-0--|


I`ll be watching..
e|--------------------------------|    |---|
B|--------------------------------|    |---|
G|7---------------4---------------|    |---|
D|7-------4-------4-------4-------|    |-2-|
A|5-------4-------2-------4-------|    |-2-|
E|--------2---------------2-------|    |-0-|
then

Verse2

e-----------------------------------------------------------------------|
b-----------------------------------------------------------------------|
g-----------------------------------------------------------------------|   
d-----------------------------------------------------------------------|
a-5-5--5-0-5-0-------------------2--4-5-0-5-----------------4-----------|
E--------------4-2-2--2-0-0-2--5------------5-4--2-4--5-4-5--5----------|

e-----------------------------------------------------------------------|
b-----------------------------------------------------------------------|
g-----------------------------------------------------------------------|   
d-----------------------------------------------------------------------|
a-5-5--5-0-5-0-------------------2--4-5-0-5-----------------------------|
E--------------4-2-2--2-0-0-2--5------------5-4--2-2--4-4---5-----------|

clean and palmmute x1
e|----------------------------------------------------------|
B|----------------------------------------------------------|
G|----------------------------------------------------------|
D|----------------------------------------------------------|
A|--------5555555-----------5555555--------5555555----------|
E|-222222----------2222222--------22222222---------22222222-|

Sometimes..
e|-------------------|---------------------------------------|   |-------|
B|-------------------|---------------------------------------|   |-------|
G|--9-11--6~~~--6-7--|---------------------------------------|   |-------|
D|-------------------|--4-6--7-------------------------------|   |-4-3-2-|
A|-------------------|---------------------------------------|   |-4-3-2-|
E|-------------------|---------------------------------------|   |-2-1-0-|

I`ll be watching..
e|--------------------------------|    |---|
B|--------------------------------|    |---|
G|7---------------4---------------|    |---|
D|7-------4-------4-------4-------|    |-2-|
A|5-------4-------2-------4-------|    |-2-|
E|--------2---------------2-------|    |-0-|

Bridge:
Take me..In circles , waiting , for something .. feel me, touch me,
come take me higher bla bla..

e|----------------------------------------------------------|2x |--------|
B|----------------------------------------------------------|   |--------|
G|----------------------------------------------------------|   |--------|
d|----------------------------------------------------------|   |-4-3-2--|
A|-55555555555--777777----2222------44444444444444444-------|   |-2-1-0--|
E|----------------------------------------------------------|   |-2-1-0--|

I`ll be watching..
e|--------------------------------|-------------| |---|
B|--------------------------------|-------------| |---|
G|7---------------4---------------|--------6-7--| |-7-|
D|7-------4-------4-------4-------|--4-6-7-6-7--| |-7-|
A|5-------4-------2-------4-------|--4-6-7-4-5--| |-5-|
E|--------2---------------2-------|--2-4-5------| |---|

Solo:
e|-------------------------------------------------------|
B|--5-7--9-10--10-12--12-14--14-15--17-19--19-21--21-22--|
G|-------------------------------------------------------|
D|-------------------------------------------------------|
A|-------------------------------------------------------|
E|-------------------------------------------------------|

outro:
Verse

e-----------------------------------------------------------------------|
b-----------------------------------------------------------------------|
g-----------------------------------------------------------------------|   
d-----------------------------------------------------------------------|
a-5-5--5-0-5-0-------------------2--4-5-0-5-----------------4-----------|
E--------------4-2-2--2-0-0-2--5------------5-4--2-4--5-4-5--5----------|

e-----------------------------------------------------------------------|
b-----------------------------------------------------------------------|
g-----------------------------------------------------------------------|   
d-----------------------------------------------------------------------|
a-5-5--5-0-5-0-------------------2--4-5-0-5-----------------------------|
E--------------4-2-2--2-0-0-2--5------------5-4--2-2--2-0-0--0----------|


Текст, аккорды и табулатура для песни "In The Shadows", исполняет "Rasmus".
Используемые в песне аккорды можно найти в разделе Как брать аккорды. Аккорды для шестиструнной гитары. Другие песни можно найти на нашем сайте, воспользовавшись алфавитным указателем вверху страницы.


 
Ошибка в тексте? Выделите ошибку и нажмите Ctrl+Enter