The rasmus
In the shadows
BPM 110
Made by Fredrik Regland

================intro
clean and quiet 
The f# on b string is synth.
e|----1/16--------|----------------|----------------|----------------|
B|7---7---7---7---|7---7---7---7---|7---7---7---7---|7---7---7---7---|
G|----------------|----------------|----------------|----------------|
D|----------------|----------------|----------------|----------------|
A|----------------|----------------|----------------|--------------5-|
E|----------------|----------------|----------------|----------------|

e|----------------|----------------|----------------|----------------|
B|7---7---7---7---|7---7---7---7---|7---7---7---7---|7---7---7---7---|
G|----------------|----------------|----------------|----------------|
D|---------2------|----------------|--------2--22---|----------------|
A|--5---5---5-2---|------------2---|4---5-----5---5-|2-2-4-4-5-5-----|
E|--------------2-|--2---2-212-----|----------------|----------------|

Distorted intro x2
e|----------------|----------------|----------------|----------------|
B|----------------|----------------|----------------|----------------|
G|----------------|----------------|----------------|----------------|
D|-----------2----|----------------|----------2--22-|------------2---|
A|5---5---5---5-2-|--------------2-|--4---5-----5---|5-2---4----5-5--|
E|----------------|2---2---2-212---|----------------|----------------|

=======================verse 
clean and palmmute x3
e|--------------------------------|
B|--------------------------------|
G|--------------------------------|
D|--------------------------------|
A|55555555--------22222222--------|
E|--------22222222--------22222222|

last time
e|--------------------------------|
B|------------------------no PM---|
G|------------------------dist----|
D|------------------------5-4-3---|
A|55555555--------222222225-4-3---|
E|--------22222222--------3-2-1---|

===========================chorus 
Chorus riff 1 with dist x2
e|----------------------------------------
B|----------------------------------------
G|7---------------4-----------------------
D|7-------4-------4-------4---------------
A|5-------4-------2-------4---------------
E|--------2---------------2---------------
 
e|----------------------------------------
B|----------------------------------------
G|----------------------------------------
D|----------------------------------------
A|55555555--------22222222----------------
E|--------22222222--------22222222--------

then chorus riff 2
e|----------------|----------------|----------------|----------------|
B|----------------|----------------|----------------|----------------|
G|----------------|----------------|----------------|----------------|
D|-----------2----|----------------|----------2--22-|----------2-2---|
A|5---5---5---5-2-|--------------2-|--4---5-----5---|5-2---2----5----|
E|----------------|2---2---2-212---|----------------|----------------|

e|----------------|----------------|----------------|----------------|
B|----------------|----------------|----------------|-----harmonic---|
G|----------------|----------------|----------------|----------------|
D|-----------2----|----------------|----------2--22-|----------------|
A|5---5---5---5-2-|--------------2-|--4---5-----5---|5-2-2-4-4-5-h---|
E|----------------|2---2---2-212---|----------------|----------------|

==========================verse

========================chorus
x2
e|--------------------------------
B|--------------------------------
G|7---------------4---------------
D|7-------4-------4-------4-------
A|5-------4-------2-------4-------
E|--------2---------------2-------

===========================verse
clean and palmmute
e|--------------------------------|
B|--------------------------------|
G|--------------------------------|
D|--------------------------------|
A|55555555--------22222222--------|
E|--------22222222--------22222222|

e|--------------------------------|
B|------------------------no PM---|
G|------------------------dist----|
D|------------------------5-4-3---|
A|55555555--------222222225-4-3---|
E|--------22222222--------3-2-1---|

=======================chorus
x2
e|--------------------------------
B|--------------------------------
G|7---------------4---------------
D|7-------4-------4-------4-------
A|5-------4-------2-------4-------
E|--------2---------------2-------
then
e|--------------------------------
B|--------------------------------
G|7---------------4---------------
D|7-------4-------4-------4-6-7-9-
A|5-------4-------2-------4-6-7-9-
E|--------2---------------2-4-5-7-

========================solo with chorus riff 1
i am not sure about the solo, something like this
e|1010101010101010--------77777777--------
B|----------------77777777--------77777777
G|----------------------------------------
D|----------------------------------------
A|----------------------------------------
E|----------------------------------------

x2
e|-----------------------------131313131313
B|10-12-----12-14----14-15---15------------
G|-----------------------------------------
D|-----------------------------------------
A|-----------------------------------------
E|-----------------------------------------

e|14141414141414--1515151515151515151515--
B|----------------------------------------
G|----------------------------------------
D|----------------------------------------
A|----------------------------------------
E|----------------------------------------

e|1717171717171717------------------------
B|----------------------------------------
G|----------------------------------------
D|----------------------------------------
A|----------------------------------------
E|----------------------------------------
======================chorus riff 2
end on f#
e|----------------------------------------
B|----------------------------------------
G|----------------------------------------
D|4---------------------------------------
A|4---------------------------------------
E|2---------------------------------------


Текст, аккорды и табулатура для песни "In The Shadows", исполняет "Rasmus".
Используемые в песне аккорды можно найти в разделе Как брать аккорды. Аккорды для шестиструнной гитары. Другие песни можно найти на нашем сайте, воспользовавшись алфавитным указателем вверху страницы.


 
Ошибка в тексте? Выделите ошибку и нажмите Ctrl+Enter