Tabbed by Crow Bird Lintu Anna!
Woohoo my second tab! anywho,here it is and i don't think theres
anymistakes.

------------------------------------------------------------|
-3-3-3-3-|-3-3-3-3-|-3-3-3-3-|-5-5-5-5b-|-------------------|
---------|---------|---------|----------|-------------------|
---------|---------|---------|----------|-------------------|
Intro 1st guitar:

---------|---------|---------|----------|-------------------|
---------|---------|---------|----------|-------------------|
---------|---------|---------|----------|-------------------|
-5-3-3-3-|-3-3-3-3-|-3-3-3-3-|-5-5-5-5b-|-------------------|
---------|---------|---------|----------|-------------------|
---------|---------|---------|----------|-------------------|
 (4x)

---------|---------|---------|---------|---------------------|
---------|---------|---------|---------|---------------------|
---------|---------|---------|---------|---------------------|
-5-3-3-3-|-3-3-3-3-|-3-3-3-3-|-5-5-----|---------------------|
---------|---------|---------|-5-5-----|---------------------|
---------|---------|---------|-3-3-----|---------------------|


---------|---------|---------|---------|---------------------|
---------|---------|---------|---------|---------------------|
---5-4---|-5---4-5-|---5-4---|-5---4-5-|---------------------|
---------|---------|---------|---------|---------------------|
---------|---------|---------|---------|---------------------|
---------|---------|---------|---------|---------------------|
 2nd guitar intro (00:09):

---------|---------|---------|---------|---------------------|
---5-3---|-----5-3-|---5-3---|-----3-5-|---------------------|
---5-4---|-5---4-5-|---5-4---|-5---4-5-|---------------------|
---------|---------|---------|---------|---------------------|
---------|---------|---------|---------|---------------------|
---------|---------|---------|---------|---------------------|
 (2x)

---------|---------|---------|---------|----------------------|
---5-3---|-----5-3-|---5-3---|---------|----------------------|
---5-4---|-5---4-5-|---5-4---|---------|----------------------|
---------|---------|---------|-5-5-----|----------------------|
---------|---------|---------|-5-5-----|----------------------|
---------|---------|---------|-3-3-----|----------------------|

---------|---------|---------|---------|----------------------|
---------|---------|---------|---------|----------------------|
---------|---------|---------|---------|----------------------|
---------|---------|---------|---------|----------------------|
---3-2---|-----3-2-|---3-2---|-----2-3-|----------------------|
-5-------|-3-------|-1-------|-3-------|----------------------|
 Intro 2 (both guitars):           (2x)

---------|---------|---------|---------|---------|---------|---------|-------|
---------|---------|---------|---------|---------|---------|---------|-------|
---------|---------|---------|---------|---------|---------|---------|-------|
-6-6-6-6-|-6-6-6-6-|-6-6-6-6-|-6-6-6-6-|-7-7-7-7-|-7-7-7-7-|-7-7-7-7-|-7-7-7-|
---------|---------|---------|---------|---------|---------|---------|-------|
---------|---------|---------|---------|---------|---------|---------|-------|
 Verse 1: Part >A<

---|---------|---------|---------|---------|---------|---------|----------|---|
---|---------|---------|---------|---------|---------|---------|----------|---|
---|---------|---------|---------|---------|---------|---------|----------|-7-|
-7-|-7-6-6-6-|-6-6-6-6-|-6-6-6-6-|-6-6-6-6-|-7-7-7-7-|-7-7-7-7-|-7-9-10-7-|---|
---|---------|---------|---------|---------|---------|---------|----------|---|
---|---------|---------|---------|---------|---------|---------|----------|---|


------|---------|---------|---------|---------|---------|---------|---------|
------|---------|---------|---------|---------|---------|---------|---------|
-9----|---------|---------|---------|---------|---------|---------|---------|
--9-7-|---------|---------|-6-6-6-6-|-6-6-6-6-|-7-7-7-7-|-7-7-7-7-|-7-7-7-7-|
------|-8-8-8-8-|-8-8-8-8-|---------|---------|---------|---------|---------|
------|---------|---------|---------|---------|---------|---------|---------|


-|---------|------------|
-|---------|------------|
-|---------|------------|
-|-7-7-7--|------------|
-|---------|------------|
-|---------|------------|

---------|---------|--------|---------|---------|---------|---------|-------|
-3---3---|-3---3---|-3---3--|-3---3---|-5---5---|-5---5---|-5---5---|-5---5-|
-4---4---|-4---4---|-4---4--|-4---4---|-5---5---|-5---5---|-5---5---|-5---5-|
---------|---------|--------|---------|---------|---------|---------|-------|
---------|---------|--------|---------|---------|---------|---------|-------|
---------|---------|--------|---------|---------|---------|---------|-------|
 Part  >B<

----|---------|---------|---------|---------|---------|-------|---------|---|
-3--|-3---3---|-3---3h5-|-3---3---|-3---3h5-|-1-------|-------|---------|---|
-4h5|-4---4---|-4---4h5-|-4---4---|-4---4h5-|-2-------|-------|---------|---|
----|---------|---------|---------|---------|---------|-------|---5-5-5-|-5-|
----|---------|---------|---------|---------|---------|-------|---5-5-5-|-5-|
----|---------|---------|---------|---------|---------|-------|---3-3-3-|-3-|
 (2x)


------|-----|-----|-----|-----|-----|-----|-----|---------|---------|----|
------|-----|-----|-----|-----|-----|-----|-----|---------|---------|----|
------|--5--|-----|--2--|--7--|-----|-----|--2--|---------|---------|----|
------|--5--|--2--|--2--|--7--|--3--|--2--|--2--|-5-5-5-5-|-5-5-5-5-|----|
------|--3--|--2--|--0--|--5--|--3--|--2--|--0--|-5-5-5-5-|-5-5-5-5-|----|
------|-----|--0--|-----|-----|--1--|--0--|-----|-3-3-3-3-|-3-3-3-3-|----|
 Chorus:  C     E     Am    Dm    F     E     Am

-------|-----|-----|-----|-----|-----|-----|----------------|
-------|-----|-----|-----|-----|-----|-----|----------------|
-------|--5--|-----|--2--|--7--|-----|-----|----------------|
-------|--5--|--2--|--2--|--7--|---3-|---2-|----------------|
-------|--3--|--2--|--0--|--5--|---3-|---2-|----------------|
-------|-----|--0--|-----|-----|---1-|---0-|----------------|
          C     E     Am    Dm     F    E

---------|---------|--------|--------|--------|---------|---------|-------|
---------|---------|--------|--------|--------|---------|---------|-------|
---------|---------|--------|--------|--------|---------|---------|-------|
---------|---------|--------|--------|--------|---------|---------|-------|
---3-2---|-----3-2-|---3-2--|----2-3-|---3-2--|-----3-2-|---3-2---|---2-3-|
-5-------|-3-------|-1------|-3------|-5------|-3-------|-1-------|-3-----|

Intro to verse 2:

Verse 2 (Just part >B


Текст, аккорды и табулатура для песни "In My Life", исполняет "Rasmus".
Используемые в песне аккорды можно найти в разделе Как брать аккорды. Аккорды для шестиструнной гитары. Другие песни можно найти на нашем сайте, воспользовавшись алфавитным указателем вверху страницы.


 
Ошибка в тексте? Выделите ошибку и нажмите Ctrl+Enter