Title: First day of my life
Artist: Rasmus
Album: Dead Letters

Tabbed by: Mikhail Punjani ([email protected])

Tuning: Standard (E A D G B E)

I thought i would tab out the CORRECT version of this song, as there have been other
tabs circulating the net which have had a number of mistakes.. well here you go.. have fun.

Intro: (x2)(Find rythm, repeat intervals 4 times each)

E|-------------------------------------------------------------||
B|--5--5----------5--5-----------------------------------------||
G|--6--6----------6--6---------6-6---------6-----8-------------||
D|--6--6----------6--6---------7-7---------7-----9-------------||
A|--4--4--7-9-7---4--4--7-9-7--7-7--7-9-7--7--7--9--7----------||
E|-----------------------------5-5---------5-----7-------------||


Verse:

E|-----------------------||
B|--5---------10---------||
G|--6----6----11---5-----||
D|--6----7----11---6-----||
A|--4----7----9----6-----||
E|-------5---------4-----||

Play this right before the chorus:

E|---------||
B|---------||
G|--6------||
D|--7---4--||
A|--7---4--||
E|--5---2--||                
 

Chorus:

E|------------------------------------------------||
B|--10------9---5------------------10-------5-----||
G|--11--8---9---6------------------11---5---6-----||
D|--11--9---9---6---(repeat 2x)----11---6---6-----||
A|--9---9---7---4------------------9----6---4-----||
E|------7-------------------------------4---------||


Bridge:

E|--------------------------||
B|--10----------------------||
G|--11---13-----------------||
D|--11---13---(repeat 3x)---||
A|--9----11-----------------||
E|--------------------------||


This song can also be played with a capo on the 4th fret:

Verse: Am/F/Dm/E

Chorus: Dm/G/C/Am (2x) 
        Dm/E/Am

Bridge: Dm/E


--Song Structure--

Intro
Verse 1
Verse 2
Chorus
Verse 3
Verse 4
Chorus
Bridge
Chorus


If you have any questions or comments, e-mail me at [email protected]

peace


Текст, аккорды и табулатура для песни "First Day Of My Life", исполняет "Rasmus".
Используемые в песне аккорды можно найти в разделе Как брать аккорды. Аккорды для шестиструнной гитары. Другие песни можно найти на нашем сайте, воспользовавшись алфавитным указателем вверху страницы.


 
Ошибка в тексте? Выделите ошибку и нажмите Ctrl+Enter