Rancid
Something in the World Today

Here it is because of Matthew Picheca
Problems, suggestions? [email protected]
mail me netime!!!!

Intro:

G:----------------------------------------------------------------------
D:-------------/5-3---------------------2-3-4-5----5-5---5-3---3--------
A:---0-3-4-5--------5-3-5-----0-3-4-5------------------------5---5-3----
E:-3------------------------3----------------------------------------5-3

Chorus (play main riff twice with two different endings!):
* = play many times, fast, bout 15 times

G:-----------------------------------|---------|----------|
D:-----------------------------------|---------|----------|
A:-5*----0-11111111-0-----------3-5*-|-0-3-4-5-|----------|
E:----1*---------------33333333------|---------|-33333333-|

Chorus:

G:-----------------------
D:------3333/-8888-555-7-
A:-5555------------------
E:-----------------------

Brige (fast, hard timing):
play first part once, play the rest a couple more times
Patr #1

G:--------------------------------------------------------
D:--------------/5-3---------------------5-3---3----------
A:---0-3-5-----------5-3-5---5-3-5-3---------5---5-3------
E:-3-------3-------------------------3---------------5-3--

Part #2 (repeat until end of song)

G:----------------------------------------------
D:-----------------------------------/5-3-------
A:-555555555555---0-3-5-------------------5-3-5-
E:--------------3-------333333333333------------



Текст, аккорды и табулатура для песни "Something In The World Today", исполняет "Rancid".
Используемые в песне аккорды можно найти в разделе Как брать аккорды. Аккорды для шестиструнной гитары. Другие песни можно найти на нашем сайте, воспользовавшись алфавитным указателем вверху страницы.


 
Ошибка в тексте? Выделите ошибку и нажмите Ctrl+Enter