INTRO
G-----------I
D-----------I
A-2-3333333 I X 4
E-----------I

VERSE
G---------2-4-5-5-4-2--------------------------------------I
D----2-3-5-----------5-3-2----------------------2-3-5-3-2--I
A-3-5----------------------5-3----3-5-3-2---3-5------------I
E------------------------------3-5---------3---------------I

PRE-CHORUS
G-----------------------------
D---3---3----5----5---5-3-2-0
A-0---0---3-------------------
E-----------------------------

CHORUS
G--------------------
D---------3333-55555-
A-33333333----------- X4
E--------------------

BRIDGE
G-----------------------------------------------
D-333333333333------------00000000-1111111111---
A--------------33333333333----------------------
E-----------------------------------------------

ORDER:
INTRO
VERSE
PRE CHORUS
CHORUS
BRIDGE
INTRO
VERSE
PRE CHORUS
CHORUS
BRIDGE
CHORUS


Текст, аккорды и табулатура для песни "Sheena Is A Punk Rocker", исполняет "Rancid".
Используемые в песне аккорды можно найти в разделе Как брать аккорды. Аккорды для шестиструнной гитары. Другие песни можно найти на нашем сайте, воспользовавшись алфавитным указателем вверху страницы.


 
Ошибка в тексте? Выделите ошибку и нажмите Ctrl+Enter