Song: Life Won’t Wait
Band: Rancid
Album: Life Won’t Wait
tabbed by: Ryan Christo


G:---------------------------------------------------------------------
D:-----1-----------------------1----------------------1----------------
A:3--3----3-------3-------3--3----3------3-------3--3----3------3------
E:------------1-4---4--1-------------1-4---4--1-------------1-4---4--1-

G:---------------------------------------------------
D:-----------------------3--------------------3------
A:1------------1-5--1--4---4--------1-5--1--4---4----
E:----5--4--3----------------1-1-3----------------1-1

G:------------------------------------------------------------------
D:-------------3--------------------3------------1------------------
A:---1-5--1--4---4--------1-5--1--4---4-----3--3----3----------3----
E:3----------------1-1-3----------------1-1------------1-1-1-4---4-1

G:------------------------------------------------------------------
D:-------1---------------------------1------------------------------
A:-3-3-3----3-----------3------3-3-3----3----------3-----1----------
E:--------------1-1-1-4---4-1--------------1-1-1-4---4-1-----5--4--- 

G:--------------------------------------------------------------- 
D:---------------------------------------0---0-------------6---6- 
A:------1-1-1--1-4-4-4-4-4-4-4-4-------1---1---1-4-4-4-4-4---4--- 
E:3-3-3--------------------------3-3-3--------------------------- 

G:--------------------------------------------------------------- 
D:----------0-------------------------------0---0---------------- 
A:------1-1---1-1-4-4-4-4-4-4-4-4-------1-1---1---4-4-4-4-4-4-4-4 
E:3-3-3---------------------------3-3-3--------------------------

G:--------------------------------------------------------------- 
D:---------------------------------------0---0-------------6---6- 
A:------1-1-1--1-4-4-4-4-4-4-4-4-------1---1---1-4-4-4-4-4---4--- 
E:3-3-3--------------------------3-3-3--------------------------- 

G:--------------------------------------------------------------- 
D:----------0-------------------------------0---0---------------- 
A:------1-1---1-1-4-4-4-4-4-4-4-4-------1-1---1---4-4-4-4-4-4-4-4 
E:3-3-3---------------------------3-3-3--------------------------

G:--------------------------------------------------------------- 
D:----------0-------------------------------0---0---------------- 
A:------1-1---1-1-4-4-4-4-4-4-4-4-------1-1---1---4-4-4-4-4-4-4-4 
E:3-3-3---------------------------3-3-3--------------------------

G:--------------------------------------------------------------- 
D:----------0---0---------------------------0---0---------------- 
A:------1-1---1---4-4-4-4-4-4-4-4-------1-1---1---4-4-4-4-4-4-4-4 
E:3-3-3---------------------------3-3-3--------------------------

G:------------------------------------------
D:-------------3--------------------3-------
A:---1-5--1--4---4--------1-5--1--4---4-----
E:3----------------1-1-3----------------1-1- (8x)

G:------------------------------------------6-6-6-6-6-6-6-6------ 
D:-----------------------------5--5-5-5-5-5---------------------- 
A:-------------4-4-4-4-4-4-4-4----------------------------------- 
E:3--3-3-3-3-3---------------------------------------------------

G:------------------------ 
D:------------------------
A:---pause------1---------
E:------------------5--4--

G:----------------------------(---------------------------     )
D:-------------------------5--(-------------------------5-     )
A:--------5----3-3-3-3-3-3----(------5------3-3-3-3-3-3---     )
E:3--3-3----------------------(-3--3----3----------------- (6x))

G:------------- 
D:-------------
A:8---7--6----- 
E:----------3--



Текст, аккорды и табулатура для песни "Life Wont Wait", исполняет "Rancid".
Используемые в песне аккорды можно найти в разделе Как брать аккорды. Аккорды для шестиструнной гитары. Другие песни можно найти на нашем сайте, воспользовавшись алфавитным указателем вверху страницы.


 
Ошибка в тексте? Выделите ошибку и нажмите Ctrl+Enter