Artist: Rancid
Song: Indestructible (Track 1)
Album: Indestructible
Guitarists: Tim Armstrong and Lars Fredricksen

Well this is the first kick ass track off the first record.
I had a hard time with this one, but it sound close to 99%. So here it goes.


KEY: *-palm mute h-hammer on p-pull off ~-let ring >-pickslide
Guitar 1-Tim
Guitar 2-Lars

Intro/Chorus (Guitar 1-distortion)

e----------------------------------
B-1010--101010--10-----------------
G-9-9---9-9-9---9--9-9---9-9-9---9-
D-7-7---7-7-7---7--6-6---6-6-6---6-
A----------------------------------
E----------------------------------
                                          x2
e----------------------------------
B-7-7---7-7-7---7--3-3---3-3-3---3-
G-6-6---6-6-6---6--2-2---2-2-2---2-
D-4-4---4-4-4---4--0-0---0-0-0---0-
A----------------------------------
E----------------------------------
  
e----------------------------------
B----------------------------------
G----------------------------------
D-2-2------------------------------       x2
A-2-2------------------------------
E-0-0------------------------------

Intro/Chorus (Guitar 2-distortion)

e----------------------------------
B-10~--------------9~--------------
G----------------------------------
D----------------------------------
A----------------------------------
E----------------------------------
                                          x2
e----------------------------------
B------------------10~-------------
G-11~------------------------------
D----------------------------------
A----------------------------------
E----------------------------------
  
e----------------------------------
B-5-5------------------------------
G-4-4---5p4p2-5p4p2-5p4p2----------
D-2-2------------------------------       x2
A----------------------------------
E----------------------------------


Verse (Guitar 1-distortion)

e-2-2-2-2-0-0-0-0-2-2-2-2-0-0-0-0--
B-3-3-3-3-2-2-2-2-3-3-3-3-2-2-2-2--
G-2-2-2-2-2-2-2-2-4-4-4-4-2-2-2-2--       x8
D-0-0-0-0-2-2-2-2-4-4-4-4-2-2-2-2--
A---------0-0-0-0-2-2-2-2-0-0-0-0--
E----------------------------------

Verse (Guitar 2-distortion)

e----------------------------------
B----------------------------------
G-7-7-7-7--------------------------       x4
D-7-7-7-7-7-7-7-7-9-9-9-9-7-7-7-7--
A-5-5-5-5-7-7-7-7-9-9-9-9-7-7-7-7--
E---------5-5-5-5-7-7-7-7-5-5-5-5--

e----------------------------------
B----------------------------------
G-7-777-7--------------------------       x4
D-7-777-7-7-777-7-9-999-9-7-777-7--
A-5-555-5-7-777-7-9-999-9-7-777-7--
E---------5-555-5-7-777-7-5-555-5--
  * *** * * *** * * *** * * *** *

Ending (Guitar 1-distortion)
e----------------------------------
B----------------------------------
G----------------------------------
D-2-2------------------------------       x3
A-2-2------------------------------
E-0-0------------------------------

e----------------------------------
B----------------------------------
G-------------------------------2--
D-------------------------------2--       
A->>>>>>>>>>>>>>>>>>>>>>>>>>>>>-0--
E----------------------------------

Ending (Guitar 2-distortion)
e----------------------------------
B-5-5------------------------------
G-4-4---5p4p2-5p4p2-5p4p2----------
D-2-2------------------------------       x3
A----------------------------------
E----------------------------------

e----------------------------------
B----------------------------------
G-------------------------------2--
D-------------------------------2--       
A->>>>>>>>>>>>>>>>>>>>>>>>>>>>>-0--
E----------------------------------

Well thats it. The only trick part is the pull of part.
Support the artist, buy the album. Any comments e-mail me at [email protected]


Текст, аккорды и табулатура для песни "Indestructible", исполняет "Rancid".
Используемые в песне аккорды можно найти в разделе Как брать аккорды. Аккорды для шестиструнной гитары. Другие песни можно найти на нашем сайте, воспользовавшись алфавитным указателем вверху страницы.


 
Ошибка в тексте? Выделите ошибку и нажмите Ctrl+Enter