Song: Disgruntled
Artist: Rancid
Album: Rancid 2000
As tabbed by a sick guy (= Kjeld Punx)

[/=slide]
[=slide with plectrum]

Intro
E|--------------------------------------------|
B|--------------------------------------------|
G|--------------------------------------------|
D||
A||
E||

Verse
E|-----/888-----/888-----/888-----/888--------|
B|-----/888-----/888-----/888-----/888--------|
G|-----/--------/--------/--------/-----------|
D|--222/-----222/-----222/-----222/-----------|
A|--222/-----222/-----222/-----222/-----------|
E|--xxx/-----xxx/-----xxx/-----xxx/-----------|
If the police come and tromp the state...

Pre-chorus
E|-------------------|
B|-------------------|
G|-------------------|
D|--2-2-2-2-2-2-2-2--|
A|--2-2-2-2-2-2-2-2--|
E|--0-0-0-0-0-0-0-0--|
And gradually arodes world technology

Chorus
E|-------------------|
B|-------------------|
G|--5-4-5-4-5-4-5-4--|
D|--5-4-5-4-5-4-5-4--|
A|--3-2-3-2-3-2-3-2--|
E|-------------------|
Let go, let go, let go, disgruntled

Pre-chorus
E|-------------------|
B|-------------------|
G|-------------------|
D|--2-2-2-2-2-2-2-2--|
A|--2-2-2-2-2-2-2-2--|
E|--0-0-0-0-0-0-0-0--|
And gradually arodes world technology

Chorus
E|-------------------|
B|-------------------|
G|--5-4-5-4-5-4-5-4--|
D|--5-4-5-4-5-4-5-4--|
A|--3-2-3-2-3-2-3-2--|
E|-------------------|
Let go, let go, let go, disgruntled

...

Intro
Verse
Pre-chorus
Chorus
Pre-chorus
Chorus
Verse
Pre-chorus
Chorus
Pre-chorus
Chorus
Verse
Solo (???)
Verse
End


Текст, аккорды и табулатура для песни "Disgruntled", исполняет "Rancid".
Используемые в песне аккорды можно найти в разделе Как брать аккорды. Аккорды для шестиструнной гитары. Другие песни можно найти на нашем сайте, воспользовавшись алфавитным указателем вверху страницы.


 
Ошибка в тексте? Выделите ошибку и нажмите Ctrl+Enter