Song: Bloodclot
Band: Rancid
Album: Life Won't Wait
Tabbed by poncho phil

Chorus part 1
G:--------------------------------------------------
D:--------------------------------------------------
A:-8-8-8-8-8-6-6-6-------6/8-8-8-8-8--6-6-6-------
E:------------------6-6-6---------------------6-6-6- 

Verse part 1 
G:-----------------------
D:-3--3-1--1-------------
A:-----------1--1----1-3-
E:----------------1-3----

Verse part 2
G:---------------------
D:---------------------
A:-8888-6666-----------
E:-----------6666-1111-

Chorus part 2
G:---------7-5---------------5-3----------------7-5-------------------------
D:-------------7-5---------------5-3----------------7-5---------------------
A:-5-5-555--------75-3-3-333---------35-5-5-555--------75--1111111133333333-
E:--------------------------------------------------------------------------

Fill
G:-----------------------------------------------------------------
D:-----------------------------------------------------------------
A:-8-8-8-86-6-6-6/8-8-8-86-6-6-6/8-8-8-86-6-6-6/8-8-8-86-6-6-6-
E:-----------------------------------------------------------------

I play this for the fill, I think it sounds better
G:-----------------------------------------------------------------
D:-----7-------5-------7-------5-------7-------5-------7-------5---
A:-8-8---86-6---6/8-8---86-6---6/8-8---86-6---6/8-8---86-6---6-
E:-----------------------------------------------------------------

Solo
G:----8-9-10-----8------------------------------
D:------------10---10-9-8-6---------------------
A:-11-----------------------8-6-----6-----------
E:------------------------------8-----8-7-6-4-1-

G:-10-----8---------------------------------
D:-----10---10-9-8-6------6--6--------------
A:-------------------8-6-8----8-7-6---6-7-8-
E:----------------------------------8-------

G:-10--13-13-10-9-8-6--6-------------------
D:-----------------------8-6---------------
A:---------------------------8-----8-----6-
E:-----------------------------------------
 

Chorus part 1 x4
Verse part 1 x4
Verse part 2 x4
Chorus part 2 x1
Chorus part 1 x2
Verse part 1 x4
Verse part 2 x4
Chorus part 2 x1
Chorus part 1 x2
Fill x1
Chorus part 2 x1
Pause
Solo x1
Chorus part 1 x8

Im pretty sure this is completely correct apart from the 
end of the first part of solo but it still sounds good.


Текст, аккорды и табулатура для песни "Bloodclot", исполняет "Rancid".
Используемые в песне аккорды можно найти в разделе Как брать аккорды. Аккорды для шестиструнной гитары. Другие песни можно найти на нашем сайте, воспользовавшись алфавитным указателем вверху страницы.


 
Ошибка в тексте? Выделите ошибку и нажмите Ctrl+Enter