Intro - ok you just play this for a long time until the bass hits the third riff 

E|4--3-----------------------------------
A|6--5--3--3-----------------------------
D|------5--5-----------------------------
G|---------------------------------------
B|---------------------------------------
E|---------------------------------------

Riff #1 - play witht he basses riff 3 ... almost exactly the same as the bass but
the bass does a little thing different should'nt mess you up though

   Play this part 2x and after that you play this
E|1x5------------4x5--|------------------
A|3----1x5--4x5--6----|1x5--4x5----------
D|-----3----6---------|3----6------------
G|--------------------|------------------
B|--------------------|------------------
E|--------------------|------------------
ok that part was guiatr #1 and you know what i don't have my guitar to help you guitar 2 but
all i remeber is on the G string and has to do with 3 5 and the 7th frets something like that
but you should be able to figure it out now


poop


Текст, аккорды и табулатура для песни "Black Lung", исполняет "Rancid".
Используемые в песне аккорды можно найти в разделе Как брать аккорды. Аккорды для шестиструнной гитары. Другие песни можно найти на нашем сайте, воспользовавшись алфавитным указателем вверху страницы.


 
Ошибка в тексте? Выделите ошибку и нажмите Ctrl+Enter