intro x 4
G|------------|
D|---44-55-77-|
A|-55---------|
E|------------|

verses
G|-------44-55-77-(x2)--------------------66-77-99---44-55-77------------------|
D|---44-55-77-(x4)--55---44-55-77-(x2)--77---------55-----------44-55-77-(x2)--|
A|-55------------------------------55-------------------------55---------------|
E|-----------------------------------------------------------------------------|

chorus
G|------------------------------------------------------------------------|
D|-33333333----------55555555---------33333333---------55555555-77777777--|
A|----------33333333----------55555555---------3333333--------------------|
E|------------------------------------------------------------------------|

verse 2 (and solo) x 2
G|-------------------------------------------------|
D|----------5-(x16)---------7-(x8)-5-(x8)----------|
A|-5-(x32)----------5-(x16)---------------5-(x16)--|
E|-------------------------------------------------|

outro (after verse)
G|--------------44-55-77--------------44-55-77----------|
D|---44-55-77-55-----------44-55-77-55------------------|
A|-55--------------------55--------------------5----5---|
E|------------------------------------------------------|

Thats it!


Текст, аккорды и табулатура для песни "Spiderman Theme Song", исполняет "Ramones".
Используемые в песне аккорды можно найти в разделе Как брать аккорды. Аккорды для шестиструнной гитары. Другие песни можно найти на нашем сайте, воспользовавшись алфавитным указателем вверху страницы.


 
Ошибка в тексте? Выделите ошибку и нажмите Ctrl+Enter