-------------------------------------------------------------------------------
			     SHEENA IS A PUNK ROCKER - RAMONES
-------------------------------------------------------------------------------
Ramones
Album: Leave Home

Tabbed by:[email protected]

Tuning:Standard
                                
e|---------------------------|---------------------|
B|-----------------12--------|---------------------|
G|--9--9--9--9--9--12--------|5-5-5-5--10-10-10-10-|
D|-10-10-10-10-10--12-X12----|7-7-7-7--10-10-10-10-|
A|-10-10-10-10-10--10--------|7-7-7-7---8-10-10-10-|
E|--8-7--8--8--8--10--------|5-5-5-5---8--8--8--8-|
   'Well...'      'They got..|'But she  'Just couldnt...'

e|------------------(12)---------------------------|
B|-------------------12----------------------------|
G|--9--9--9--9--9----12----------------------------|
D|-10-10-10-10-10----12-X12------------------------|
A|-10-10-10-10-10----10----------------------------|
E|--8-7--8--8--8----10---------------------------|
   'Well NYC....'    'All

e|-------------------------------------------------|
B|-------------------------------------------------|
G|--9--9--9--10-10-10---12-12-12-------------------|
D|-10-10-10--10-10-10---12-12-12-------------------|
A|-10-10-10---8--8--8---10-10-10-------------------|
E|--8--8--8---8--8--8---10-10-10-------------------|
  'Sheena is  a punk    rocker  xnxnx...

e|-------------------------------------------------|
B|-------------------------------------------------|
G|-9--------9------------10------------------------|
D|10--X N--10------------10--X N-------------------|
A|10-------10-------------8------------------------|
E|-8--------8-------------8------------------------|
  'Now     'Well she's a punk, punk, a punk rocker

                          new chord!
e|-------------------------------------------------|
B|-------------------------------------------------|
G|-9-----------12---------7------------------------|
D|10--X N------12-X N-----8--X N-------------------|
A|10-----------10---------8------------------------|
E|-8-----------10---------6------------------------|
 punk...      punk....   punk...Return, repeat, fade.

C


Текст, аккорды и табулатура для песни "Sheena Is A Punk Rocker", исполняет "Ramones".
Используемые в песне аккорды можно найти в разделе Как брать аккорды. Аккорды для шестиструнной гитары. Другие песни можно найти на нашем сайте, воспользовавшись алфавитным указателем вверху страницы.


 
Ошибка в тексте? Выделите ошибку и нажмите Ctrl+Enter