-------------------------------------------------------------------------------
			     I wanna be your boyfriend - The Ramones
-------------------------------------------------------------------------------

Tabbed By : RHbassist
e-mail: [email protected]

Tuning: Standard

Main riff
G|-------------------------|
D|-------------------------|
A|-7-7-7-7-7-7-7-----------|
E|---------------5-5-7-7---|

Chorus
G|--------------------------------|
D|--------------------------------|
A|-------------7------------------|
E|-9-9-9-9-9-9---5-5-5-5-5-5------|x2

Really short and easy. For the song structure, e-mail me @ [email protected]
[email protected]==============


Текст, аккорды и табулатура для песни "I Wanna Be Your Boyfriend", исполняет "Ramones".
Используемые в песне аккорды можно найти в разделе Как брать аккорды. Аккорды для шестиструнной гитары. Другие песни можно найти на нашем сайте, воспользовавшись алфавитным указателем вверху страницы.


 
Ошибка в тексте? Выделите ошибку и нажмите Ctrl+Enter