Tuning: Standard
  Intro:
G|-----------------------|------------------------|-------------------------|
D|-----------------------|------------------------|-------------------------|
A|-7-7-(5)/7-77-(5)/77777|------------------------|-------------------------|
E|-0-0-----0-00-----00000|3-33-(1)/333-(1)/3-33333|5-55-(3)/5-555-(3)/5-5555|


  Verse:
G|--------------------------------|-----------------------------|
D|--------------------------------|-----------------------------|
A|-------------(3)/5-(3)/55-55(3)|------------(3)/5-(3)/55-5555|
E|-5-55-5-5-55--------------------|-5-55-5-5-55-----------------|
  I don't......around........you   I don't.....


  Bridge          Chorus
G|---------------|--------------------------------------|
D|-5-55555555-777|-5-5555555-7-7-9-7---5-5555555-7-7-9-7|
A|---------------|--------------------------------------|
E|---------------|--------------------------------------|
  So why do......| I don't.....ou-uu   I don't.....ou-uu


  Bassline during Johnny's scorching guitar solo. |Coda
G|------------------------------------------------|-------------|
D|------------5/777-5/7777-----------5/777-5/7777-|-----------7-|
A|-777-5/777--0-000-0-0000-777-5/777-0-000-0-0000-|-------------|
E|-000-0-000---------------000-0-000--------------|-3-3333333-5-| 

Brilliant lyrics-

I don't wanna walk around with you
I don't wanna walk around with you
I don't wanna walk around with you
So why you wanna walk around with me?

I don't wanna walk around with you
I don't wanna walk around with you

I don't wanna go out with you
I don't wanna walk around with you
I don't wanna walk around with you
So why you wanna walk around with me?

I don't wanna walk around with you
I don't wanna walk around with you


Текст, аккорды и табулатура для песни "I Dont Wanna Walk Around With You", исполняет "Ramones".
Используемые в песне аккорды можно найти в разделе Как брать аккорды. Аккорды для шестиструнной гитары. Другие песни можно найти на нашем сайте, воспользовавшись алфавитным указателем вверху страницы.


 
Ошибка в тексте? Выделите ошибку и нажмите Ctrl+Enter