Do You Remember Rock 'n' Roll Radio?


the Ramones

riff 1

A-3-3------------------------3--3---------------------------------------
E--3-3-3-3-3-3-3-3-3-3---3-3-3-3-3-3-3-3-3-3-3-3-3-3-1-2
do that a couple of times then

riff 2

D-----------------2-2-------2-2-5-5-7-7------4-4-7-7-9-9-5-5----------------
--
A------2-2-5-5------3-3-------------------5-5----------------------7-7-5-5--
---
E-3-3-----------------------------------------------------------------------
--------7-7
do that twice

verse
A------------------------3-3-3-3-5-5-5-5-
E-3-3-3-3-3-3-3-3-----------------------

chorus:

D---------------------------------------------5-5-5-5-5-5-5-5---------------
-----------------------------
A-----------------------5-5-5-5-5-5-5-5------------------------7-7-7-7-7-7-7
-7-3-3-3-3-3-3-3-3
E-5-5-5-5-5-5-5-5-----------------------------------------------------------
------------------------------


D---------------------------------------------------------------------------
---------------------------
A-3-3-3-3-3-3-3-3-5-5-5-5-5-5-5-5-10-10-10-10-10-10-10-10-------------------
---
E---------------------------------------------------------------------------
------5-5-5-5-5-5-5-5-


D-----------------------5-5-5-5-5-5-5-5-------------------------------------
-----------------------------
A-5-5-5-5-5-5-5-5-----------------------7-7-7-7-7-7-7-7-3-3-3-3-3-3-3-3-3-3-
3-3-3-3-3-3-
E---------------------------------------------------------------------------
-----------------------------------

A-5-5-5-5-5-5-5-5-10-10-10-10-10-10-10-10

It shouldn't be too hard to figure out where the other riffs go.

Tabbed by Ian Higbee


Текст, аккорды и табулатура для песни "Do You Remember Rock N Roll Radio", исполняет "Ramones".
Используемые в песне аккорды можно найти в разделе Как брать аккорды. Аккорды для шестиструнной гитары. Другие песни можно найти на нашем сайте, воспользовавшись алфавитным указателем вверху страницы.


 
Ошибка в тексте? Выделите ошибку и нажмите Ctrl+Enter