Wollt Ihr Das Bett In Flammen Sehen - Rammstein

By: Jon Craven ([email protected])
For questions, comments, feedback, an outline of the timing, write the above
address.

Note:
  -Played with a pick.

(4/4)(130 bpm)
E string tuned to Eb

R - quarter rest
r - eighth rest

Intro: (0:32)
|--------------------|--------------------|--------------------|
|--------------------|--------------------|--------------------|
|-----------------10-|-----------------10-|-----------------10-|
|11-0-12-0-11-0-0----|11-0-12-0-11-0-0----|11-0-12-0-11-0-0----|

|--------------------|--------------------|--------------------|
|--------------------|--------------------|--------------------|
|-----------------10-|-----------------10-|-----------------10-|
|11-0-12-0-11-0-0----|11-0-12-0-11-0-0----|11-0-12-0-11-0-0----|

|--------------------|-------------------|
|--------------------|-------------------|
|-----------------10-|-------------------|
|11-0-12-0-11-0-0----|11-0-12-0-11-R---r-|

Chorus (verse/pre-chorus/outro pt.1): (x14)(0:47)
|--------------------|
|--------------------|
|-----------------10-|
|11-0-12-0-11-0-0----|

Fill: (x4)(1:13)
|--------------------|
|--------------------|
|---------------10---|
|11-0-12-0-11-0------|

Verse (x16)
Pre-chorus (x10)
Verse (x16)
Pre-chorus (x12)
Rest for two measures

Interlude: (x2)(3:04)
|----------------|----------------|----------------|----------------|
|----------------|----------------|----------------|----------------|
|----------------|----------------|----------------|----------------|
|00002-0---0---0-|00002-0---0---0-|00002-0---0---0-|00002-0---0---0-|

|----------------|----------------|----------------|----------------|
|----------------|----------------|----------------|----------------|
|----------------|----------------|----------------|----------------|
|00002-0---0---0-|00002-0---0---0-|00002-0---0---0-|00002-0-R---R---|

Bridge: (3:32)
|----------------|
|----------------|
|5-5-5-5-5-5-5-5-|
|----------------|

Fill (x6)
Rest for two measures
Chorus (x14)
Outro pt.1 (x28)

Outro pt.21: (5:06)
|-----------------|
|-----------------|
|-----------------|
|11-0-R---R---R---|

Rest till end


Текст, аккорды и табулатура для песни "Wollt Ihr Das Bett In Flammen Sehen", исполняет "Rammstein".
Используемые в песне аккорды можно найти в разделе Как брать аккорды. Аккорды для шестиструнной гитары. Другие песни можно найти на нашем сайте, воспользовавшись алфавитным указателем вверху страницы.


 
Ошибка в тексте? Выделите ошибку и нажмите Ctrl+Enter