Бас может показаться сложноватым, но это Rеаlный бас:

|-------18----------16----|------14---------13----|
|*---14----14----14---14--|---14----14---14---14--|
|*-0----------0-----------|-0----------0----------|
--------------------------|


                                                              
-----11-----------11----|------13----------13-----|
---9-----9-----9-----9--|----9----9-----9------9--|
11----------11----------|-11---------11-----------|
--------------------------------------|


                                                                 
------14---------13-----|-------11---------9------|
---11----11---11----11--|---11-----11---11----11--|
-9----------9-----------|-9-----------9-----------|
--------------------------------------|


                                                                  
--------------------------------------|
-----11----------10-----|-------11---------11----*|
--11----11----11----11--|----11----11---11----11-*|
9-----------9-----------|-9-----------9-----------|


Здесь играется ооочень быстро(Distortion):                            
----------------------------
|--3-3-3-3-3-3-3-3-3-3-3-3-3-3-3-3-3-3-3
|--2-2-2-2-2-2-2-2-2-2-2-2-2-2-2-2-2-2-2
|--0-0-0-0-0-0-0-0-0-0-0-0-0-0-0-0-0-0-0
----------------------------
----------------------------

                                                                  
---------------------------------------
--1-1-1-1-1-1-1-1-1-1-1-1-1-1-1-1-1-1-1
--0-0-0-0-0-0-0-0-0-0-0-0-0-0-0-0-0-0-0
---------------------------------------
--3-3-3-3-3-3-3-3-3-3-3-3-3-3-3-3-3-3-3
---------------------------------------

                                                                                                                                   
---------------------------------------
---------------------------------------
--3-3-3-3-3-3-3-3-3-3-3-3-3-3-3-3-3-3-3
--3-3-3-3-3-3-3-3-3-3-3-3-3-3-3-3-3-3-3
--1-1-1-1-1-1-1-1-1-1-1-1-1-1-1-1-1-1-1
---------------------------------------

                                                                                                                                    
---------------------------------------|
---------------------------------------|
--2-2-2-2-2-2-2-2-2-2-2-2-2-2-2-2-2-2-2|
--2-2-2-2-2-2-2-2-2-2-2-2-2-2-2-2-2-2-2|
--0-0-0-0-0-0-0-0-0-0-0-0-0-0-0-0-0-0-0|
---------------------------------------|

SEEMANN 

Komm in mein Boot
ein Sturm kommt auf / und es wird Nacht
Wo willst du hin
so ganz allein / treibst du davon
Wer halt deine Hand
wenn es dich / nach unten zieht

Wo willst du hin
so uferlos / die kalte See
Komm in mein Boot
der Herbstwind halt / die Segel straff

Jetzt stehst du da an der Laterne
hast Tranen im Gesicht
das Abendlicht verjagt die Schatten
die Zeit steht still und es wird Herbst

Komm in mein Boot
die Sehnsucht wird / der Steuermann
Komm in mein Boot
der beste Seemann / war doch ich

Jetzt stehst du da an der Laterne
hast Tranen im Gesicht
das Feuer nimmst du von der Kerze
die Zeit steht still und es wird Herbst

Sie sprachen nur von deiner Mutter
so gnadenlos ist nur die Nacht
am Ende bleib ich doch alleine
die Zeit steht still
und mir ist kalt 

 Моряк
Войди в мою лодку,
Шторм прибывает,
И наступает ночь,
Куда хочешь ты?
Я совершенно одинок,
Ты уведи меня отсюда,
Кто держит твою руку,
Когда тебя
Вниз тянет?

Куда хочешь ты?
Так бесконечно
Холодное море,
Войди в мою лодку,
Осенний ветер натягивает
Паруса туго.

Теперь ты стоишь там под фонарем
Со слезами на лице,
Дневной свет падает в сторону,
Осенний ветер подметает улицы.

Теперь ты стоишь там под фонарем
Со слезами на лице,
Вечерний свет прогонит тени,
Время остановилось и наступает осень.

Войди в мою лодку,
Тоска станет
Штурманом.
Войди в мою лодку,
Лучшим моряком
Был все же я.

Теперь ты стоишь там под фонарем
Со слезами на лице,
Огонь ты берешь от свечи,
Время стоит и наступает осень.

Они говорили только о твоей матери,
Так безжалостна - только ночь,
В конце я все равно останусь один,
Время останавливается
И мне холодно...

 Если есть какие-нибудь мысли-предложения, 
 пожалуйста, оставьте отзыв :) 
                   Kolesnikov A. Sayansk Irk 


Текст, аккорды и табулатура для песни "Seemann (с переводом)", исполняет "Rammstein".
Используемые в песне аккорды можно найти в разделе Как брать аккорды. Аккорды для шестиструнной гитары. Другие песни можно найти на нашем сайте, воспользовавшись алфавитным указателем вверху страницы.


 
Ошибка в тексте? Выделите ошибку и нажмите Ctrl+Enter