{
tf1ansiansicpg1252deff0deflang1033deftab708{fonttbl{f0fmodernfcharset0 Courier 
Times New Roman;}}

Rammstein tabspar
par
Alter Mannpar
par
Drop D tuningpar
|-e-|par
|-B-|par
|-G-|par
|-D-|par
|-A-|par
|-D-|par
par
Verse Riff:par
|-----------------------------------------------|-|par
|-----------------------------------------------|-|par
|-----------------------------------------------|-|par
|-----------------------------------------------|-|par
|---2-----2---2-----2-----2---2-----2-----0-1-3-|-|par
|-2-2-2-2-2-2-2-2-2-2-2-2-2-2-2-2-2-2-2-2-0-1-3-|-|par
  pm  pm.]  pm  pm.]  pm.]  pm  pm.]  pm.]par
par
Chorus:par
|---------------------------------------------------------------------|-|par
|---------------------------------------------------------------------|-|par
|---------------------------------------------------------------------|-|par
|---5-----5---5-----5-----5---5-------4-----4---4-----4-----4---4-----|-|par
|-3-3-3-3-3-3-3-3-3-3-3-3-3-3-3-3-3-2-2-2-2-2-2-2-2-2-2-2-2-2-2-2-2-2-|-|par
|---------------------------------------------------------------------|-|par
  pm  pm.]  pm  pm.]  pm.]  pm  pm...]  pm.]  pm  pm.]  pm.]  pm  pm.]par
par
|---------------------------------------------------------------------|-|par
|---------------------------------------------------------------------|-|par
|---------------------------------------------------------------------|-|par
|---5-----5---5-------9-----9---9-----4-----4---4-----4-----4---4-----|-|par
|-3-3-3-3-3-3-3-3-3-7-7-7-7-7-7-7-7-2-2-2-2-2-2-2-2-2-2-2-2-2-2-2-2-2-|-|par
|---------------------------------------------------------------------|-|par
  pm  pm.]  pm  pm...]  pm.]  pm  pm.]  pm.]  pm  pm.]  pm.]  pm  pm.]par
par
Fill:par
|----------------|-|par
|----------------|-|par
|----------------|-|par
|-0--------------|-|par
|-0------------2-|-|par
|-0----7-8-7-5-2-|-|par
par
tabbed by Rebel Xpar
Ramms+ein tabs: http://www.geocities.com/SunsetStrip/Pitpar
par
Asche zu Aschepar
par
Standard Tuningpar
|-e-|par
|-B-|par
|-G-|par
|-D-|par
|-A-|par
|-E-|par
par
par
|---------------------------------|-|par
|---------------------------------|-|par
|---------------------------------|-|par
|---------7-------8-----7---5-----|-|par
|-5p2-----7-------8-----7---5-----|-|par
|-3p0-0-0-5-0-0-0-6-0-0-5-0-3-0-0-|-|par
      pm.]  pm...]  pm.]  pm  pm.]par
par
par
One part goespar
|---------------------------------------------|-|par
|---------------------------------------------|-|par
|---------------------------------------------|-|par
|---------7-----------------------------------|-|par
|-5p2-----7-----------------------------------|-|par
|-3p0-0-0-5-0-0-0--6-6-6--6-6-6--6-6-6--6-6-6-|-|par
par
tabbed by Rebel Xpar
Ramms+ein tabs: http://www.geocities.com/SunsetStrip/Pit/2594/index.htmlpar
par
Bistrafe Michpar
par
Drop D tuningpar
|-e-|par
|-B-|par
|-G-|par
|-D-|par
|-A-|par
|-D-|par
par
Riff 1par
|--------------------------------------------------|.|---------------|-|par
|--------------------------------------------------|.|---------------|-|par
|--------------------------------------------------|.|---------------|-|par
|--------------------------------------------------|.|-------------2-|-|par
|-2-2-2--2-2--2-2-2--2-2--2-2-2--2-2--2/5-2--2--2--|.|-5-4-3-5-4-3-2-|-|par
|-2-2-2--2-2--2-2-2--2-2--2-2-2--2-2--2/5-2--2--2--|.|-5-4-3-5-4-3-2-|-|par
  pm................................]     pm.....]     pm.........]par
par
Versepar
|----------------------------------|-|par
|----------------------------------|-|par
|----------------------------------|-|par
|----------------------------------|-|par
|-2-2--2-2-2--2-2--2-2--2-2-2--1-0-|-|par
|-2-2--2-2-2--2-2--2-2--2-2-2--1-0-|-|par
  pm..............................]par
par
Choruspar
|------------------------------------------|-|par
|------------------------------------------|-|par
|----------4----------5---------9----------|-|par
|-2--------4----------5---------9----------|-|par
|-2--------2----------3---------7----------|-|par
|-2----------------------------------------|-|par
par
tabbed by Rebel Xpar
Ramms+ein tabs: http://www.geocities.com/SunsetStrip/Pit/2594/index.htmlpar
par
B'fcck Dichpar
par
Drop D tuningpar
|-e-|par
|-B-|par
|-G-|par
|-D-|par
|-A-|par
|-D-|par
par
Main riffpar
|---------------------------||-----------------------------||-|par
|---------------------------||*---------------------------*||-|par
|---------------------------||-----------------------------||-|par
|-0---3---2---3-5---------0-||------3---2---3-5---------0--||-|par
|-0---3---2---3-5---0-2-3-0-||*-----3---2---3-5---0-2-3-0-*||-|par
|-0-0-3-0-2-0-3-5-0-0-2-3-0-||--0-0-3-0-2-0-3-5-0-0-2-3-0--||-|par
    pm  pm  pm    pm            pm.]  pm  pm    pmpar
par
Fillpar
|---------------------------------|-|par
|---------------------------------|-|par
|---------------------------------|-|par
|---------------------------------|-|par
|---1---1---1---1---1---1---1---1-|-|par
|-1-1-1-1-1-1-1-1-1-1-1-1-1-1-1-1-|-|par
  pm  pm  pm  pm  pm  pm  pm  pmpar
par
tabbed by Rebel Xpar
Ramms+ein tabs: http://www.geocities.com/SunsetStrip/Pit/2594/index.htmlpar
par
Das alte Leidpar
par
Standard Tuningpar
|-e-|par
|-B-|par
|-G-|par
|-D-|par
|-A-|par
|-E-|par
par
par
Main Guitar Partpar
|-------------------------|-|par
|-------------------------|-|par
|-------------------------|-|par
|--------------------/7-2-|-|par
|-2-4--2-4--2-4--2-4-/7-2-|-|par
|-0-2--0-2--0-2--0-2-/5-0-|-|par
           pmpar
par
Versepar
|----------------|------|-|par
|----------------|------|-|par
|----------------|------|-|par
|----------------|-5^r--|-|par
|-2-2----2-2-2-2-|------|-|par
|-0-0----0-0-0-0-|------|-|par
par
tabbed by Rebel Xpar
Ramms+ein tabs: http://www.geocities.com/SunsetStrip/Pit/2594/index.htmlpar
par
Der Meisterpar
par
Drop D Tuningpar
|-e-|par
|-B-|par
|-G-|par
|-D-|par
|-A-|par
|-D-|par
par
par
Intropar
|-------------------------------|-------------------------------|-|par
|-------------------------------|-------------------------------|-|par
|---------7h8-------7h8-----7h8-|---------7h8-------7h8-----5h7-|-|par
|-0-0-0-0-7h8-0-0-0-7h8-0-0-7h8-|-0-0-0-0-7h8-0-0-0-7h8-0-0-5h7-|-|par
|-------------------------------|-------------------------------|-|par
|-------------------------------|-------------------------------|-|par
  pm.....]    pm...]    pm.]      pm.....]    pm...]    pm.]par
par
par
Versepar
|---------------------------------|-|par
|---------------------------------|-|par
|-7---5---7---5---7---5---7---5-8-|-|par
|-7---5---7---5---7---5---7---5-8-|-|par
|-5---3---5---3---5---3---5---3-6-|-|par
|---0---0---0---0---0---0---0-----|-|par
    pm  pm  pm  pm  pm  pm  pmpar
par
It changes somewhere in the song and does thispar
|----------------------------------|-|par
|----------------------------------|-|par
|-9---7---9---7---9---7---9---7-10-|-|par
|-9---7---9---7---9---7---9---7-10-|-|par
|-7---5---7---5---7---5---7---5--8-|-|par
|---0---0---0---0---0---0---0------|-|par
    pm  pm  pm  pm  pm  pm  pmpar
par
par
Choruspar
|-------------------------------|-------------------------------|-|par
|-------------------------------|-------------------------------|-|par
|---------7h8-------7h8-----7h8-|---------7h8-------7h8---------|-|par
|-0-0-0-0-7h8-0-0-0-7h8-0-0-7h8-|-0-0-0-0-7h8-0-0-0-7h8---------|-|par
|-------------------------------|-------------------------------|-|par
|-------------------------------|-------------------------------|-|par
  pm.....]    pm...]    pm.]      pm.....]    pm...]par
par
tabbed by Rebel Xpar
Ramms+ein tabs: http://www.geocities.com/SunsetStrip/Pit/2594/index.htmlpar
par
Du Hastpar
par
Standard Tuningpar
|-e-|par
|-B-|par
|-G-|par
|-D-|par
|-A-|par
|-E-|par
par
Intropar
|----------------------------------------------|.|------------------------|--|par
|----------------------------------------------|.|------------------------|--|par
|----------------------------------------------|.|------------------------|--|par
|-75----------------7-5-----------------------|.|-5/7--------------------|-|par
|-75-2--2--2-2-2--2-7-5-2--2--2--2-2-2--2-2-2-|.|-5/7-7--7--7-7-7--7-7-7-|-|par
|-53-0--0--0-0-0--0-5-3-0--0--0--0-0-0--0-0-0-|.|-3/5-5--5--5-5-5--5-5-5-|-|par
      pm............]    pm...................]        pm................]par
par
Versepar
||------------------------------------------------||--|par
||*----------------------------------------------*||--|par
||------------------------------------------------||--|par
||--75----------------7-5------------------------||-|par
||*-75-2--2--2-2-2--2-7-5-2--2--2--2-2-2--2-2-2-*||-|par
||--53-0--0--0-0-0--0-5-3-0--0--0--0-0-0--0-0-0--||-|par
        pm............]    pm...................]par
par
||--------------------------||-|par
||*------------------------*||-|par
||--------------------------||-|par
||--5/7---------------------||-|par
||*-5/7-7--7--7-7-7--7-7-7-*||-|par
||--3/5-5--5--5-5-5--5-5-5--||-|par
        pm................]par
par
|----------------------------------------------------|-|par
|----------------------------------------------------|-|par
|----------------------------------------------------|-|par
|-7/10----------------------10-9---------------------|-|par
|-7/10-10--10--10-10-10--10-10-9--9--9--9-9-9--9-9-9-|-|par
|-5/8---8---8---8--8--8---8--8-7--7--7--7-7-7--7-7-7-|-|par
       pm..................]     pm.................]par
par
tabbed by Rebel Xpar
Ramms+ein tabs: http://www.geocities.com/SunsetStrip/Pit/2594/index.htmlpar
par
Du Riechst so gutpar
par
Drop D Tuningpar
|-e-|par
|-B-|par
|-G-|par
|-D-|par
|-A-|par
|-D-|par
par
Versepar
|-----------------------|-|par
|-----------------------|-|par
|-----------------------|-|par
|-----------------------|-|par
|-0-1--0-1--0-1-1-0-1-0-|-|par
|-0-1--0-1--0-1-1-0-1-0-|-|par
 pm....................]par
par
par
Choruspar
|------------|        |-----------|-|par
|------------|        |-----------|-|par
|-5---10-----|        |-----------|-|par
|-5---10---0-|        |-3--1--0---|-|par
|-3----8---0-|        |-3--1--0---|-|par
|----------0-|        |-3--1--0---|-|par
du riechst so gut/.../ich geh dir hinterherpar
par
par
Solo (tabbed by Brian Mattern)par
par
Don't pick, just hammer on each note and pull off to the open stringpar
each note.par
|---------------------------------------|-|par
|---------------------------------------|-|par
|---------------------------------------|-|par
|-17-0-17-0-17-0-17-0-16-0-16-0-16-0-17-|-|par
|---------------------------------------|-|par
|---------------------------------------|-|par
par
|-----------------------------------------|-|par
|-----------------------------------------|-|par
|-----------------------------------------|-|par
|-0-12-0-12-0-12-0-12-0-14-0-12-0-14-0-12-|-|par
|-----------------------------------------|-|par
|-----------------------------------------|-|par
par
par
tabbed by Rebel X (solo by Brian Mattern)par
Ramms+ein tabs: http://www.geocities.com/SunsetStrip/Pit/2594/index.htmlpar
par
Eifersuchtpar
par
Drop D tuningpar
|-e-|par
|-B-|par
|-G-|par
|-D-|par
|-A-|par
|-D-|par
par
Keyboard Intro:par
|--------------------|--------------------|-|par
|--------------------|--------------------|-|par
|--------------------|--------------------|-|par
|-2--2-2-2--2--2-4-5-|-2--2-2-2--2--2-0---|-|par
|--------------------|------------------2-|-|par
|--------------------|--------------------|-|par
par
Riff 1:par
|----------------------------|-|par
|----------------------------|-|par
|----------------------------|-|par
|----------------------------|-|par
|-2--2--2-2--2--2--2-2-4--5--|-|par
|-2--2--2-2--2--2--2-2-4--5--|-|par
  pm...................]par
par
Riff 2:par
|----------------------------|-|par
|----------------------------|-|par
|----------------------------|-|par
|----------------------------|-|par
|-0--0--0-0--0--0--0-0-2--3--|-|par
|-0--0--0-0--0--0--0-0-2--3--|-|par
par
Verse Riff:par
|----------------------------|-|par
|----------------------------|-|par
|----------------------------|-|par
|----------------------------|-|par
|-3--3--3-3--3--3--3-3-3--5--|-|par
|-3--3--3-3--3--3--3-3-3--5--|-|par
  pm....................]par
par
tabbed by Rebel Xpar
Ramms+ein tabs: http://www.geocities.com/SunsetStrip/Pit/2594/index.htmlpar
par
Engelpar
par
Drop D Tuningpar
|-e-|par
|-B-|par
|-G-|par
|-D-|par
|-A-|par
|-D-|par
par
par
Whistle Intro (this sounds radical with wah or delay)par
|--10---------------------------|-10-------------------------|-|par
|------10-13----10-12------8-10-|-----10-13----10-12-----8---|-|par
|-------------------------------|--------------------------7-|-|par
|-------------------------------|----------------------------|-|par
|-------------------------------|----------------------------|-|par
|-------------------------------|----------------------------|-|par
par
Main Guitar Part                     3xpar
||-----------------------------------||---------------------------------|-|par
||*---------------------------------*||---------------------------------|-|par
||-----------------------------------||---------------------------------|-|par
||-----------------------------------||---------------------------------|-|par
||*-3h5-----6p5-----3h5---3h5---6p5-*||-3h5-----6p5-----3h5---3h5-3-3-3-|-|par
||------0-0-----0-0-----0-----0------||-----0-0-----0-0-----0-----3-3-3-|-|par
        pm.]    pm.]    pm    pm            pm.]    pm.]    pm    pm...]par
par
Choruspar
there really is no guitar part here, but you can strum these chordspar
(clean guitar w/ effects)par
|------------------------------------|--------------------------|-|par
|------------------------------------|--------------------------|-|par
|-7-------5--------------------------|-7------9------12---------|-|par
|-7-------5-------5--------0---------|-7------9------12---------|-|par
|-5-------3-------5--------0---------|-5------7------10---------|-|par
|-----------------5--------0---------|--------------------------|-|par
just as the clouds...                  alone in fear...par
par
par
tabbed by Rebel Xpar
Ramms+ein tabs: http://www.geocities.com/SunsetStrip/Pit/2594/index.htmlpar
par
Heirate michpar
par
Standard Tuningpar
|-e-|par
|-B-|par
|-G-|par
|-D-|par
|-A-|par
|-E-|par
par
par
Intro/Choruspar
|---------------------------------|-|par
|---------------------------------|-|par
|---------------------------------|-|par
|-2-----2-----2-----2-------------|-|par
|-2-----2-----2-----2---5/4---4/5-|-|par
|-0-0-0-0-0-0-0-0-0-0-0-3/2-0-2/3-|-|par
    pm.]  pm.]  pm.]  pmpar
par
Bridgepar
|------------------|-----------------------|-|par
|------------------|-----------------------|-|par
|------------------|-----------------------|-|par
|-2----------5-3-2-|-4------4-----4-5--2-4-|-|par
|-2------2-3-5-3-2-|-4------4-----4-5--2-2-|-|par
|-0------0-1-3-1-0-|-2--2-2-2-2-2-2-3--0-2-|-|par
         pm.]           pm.]  pm.]par
par
tabbed by Rebel Xpar
Ramms+ein tabs: http://www.geocities.com/SunsetStrip/Pit/2594/index.htmlpar
par
Herzeleidpar
par
Standard tuningpar
|-e-|par
|-B-|par
|-G-|par
|-D-|par
|-A-|par
|-E-|par
par
Versepar
|----------------|-|par
|----------------|-|par
|----------------|-|par
|----------------|-|par
|-4-4-4--4-4-4-4-|-|par
|-2-3-2--2-3-3-2-|-|par
  pm......]par
par
Choruspar
|-------------------------|-|par
|-------------------------|-|par
|-------------------------|-|par
|-2-4----4----5-5-4-------|-|par
|-2-4--2-4--4-5-5-4-------|-|par
|-0-2--0-2--2-3-3-2-2-2-2-|-|par
      pm   pm       pm...]par
par
this part is in there somewherepar
|---------------------------------|-|par
|---------------------------------|-|par
|---------------------------------|-|par
|---------------------------------|-|par
|---------------------------------|-|par
|-0h2-2-2-3p2-0h2-0h2-2-2-2-2-2-2-|-|par
      pm.]            pm.........]par
par
|---------------------------------|-|par
|---------------------------------|-|par
|---------------------------------|-|par
|---------------------------------|-|par
|---------------------------------|-|par
|-3h5-5-5-6p5-3h5-3h5-5-5-5-5-5-5-|-|par
par
tabbed by Rebel Xpar
Ramms+ein tabs: http://www.geocities.com/SunsetStrip/Pit/2594/index.htmlpar
par
Klavierpar
par
This is the only part I've figured outpar
they do some weird thing, but it's basically this...par
|---------------------|---------------------------|-|par
|-10-----8----6-8-5---|-10-10---8-8---6-6---5-----|-|par
|---------------------|---------------------------|-|par
|---------------------|---------------------------|-|par
|---------------------|---------------------------|-|par
|---------------------|---------------------------|-|par
par
|---------------------|------------------------|-|par
|-8-----6-----5-6-5---|-8-8----7-7----5----5---|-|par
|---------------------|------------------------|-|par
|---------------------|------------------------|-|par
|---------------------|------------------------|-|par
|---------------------|------------------------|-|par
par
tab by Rebel Xpar
http://www.geocities.com/SunsetStrip/Pit/index.htmlpar
par
Laichzeitpar
par
standard tuningpar
|-e-|par
|-B-|par
|-G-|par
|-D-|par
|-A-|par
|-E-|par
par
Choruspar
|-----------------------|-|par
|-----------------------|-|par
|-----------------------|-|par
|-----------------------|-|par
|-2-2-2--2-2-2--2-2-5-3-|-|par
|-0-0-0--0-0-0--0-0-3-1-|-|par
  pm...................]par
par
another partpar
|-----------------|-|par
|-----------------|-|par
|-----------------|-|par
|-5--5-5-5--5-8-6-|-|par
|-5--5-5-5--5-8-6-|-|par
|-3--3-3-3--3-6-4-|-|par
par
yet another partpar
||-------------------------|||-------------------||-|par
||*-----------------------*|||*-----------------*||-|par
||-------------------------|||-------------------||-|par
||-------------------------|||--2--2-2-2--2-5-3--||-|par
||*-2-2-2--2-2-2--2-2-5-3-*|||*-2--2-2-2--2-5-3-*||-|par
||--0-0-0--0-0-0--0-0-3-1--|||--0--0-0-0--0-3-1--||-|par
    pm...................]par
                                Laichzeitpar
par
Final riffpar
|---------------------|-|par
|---------------------|-|par
|---------------------|-|par
|---------------0--0--|-|par
|-2-2-2--2-2-2--0--0--|-|par
|-0-0-0--0-0-0--------|-|par
  pm................]par
par
tabbed by Rebel Xpar
Ramms+ein tabs: http://www.geocities.com/SunsetStrip/Pit/2594/index.htmlpar
par
Rammsteinpar
par
Standard tuningpar
|-e-|par
|-B-|par
|-G-|par
|-D-|par
|-A-|par
|-E-|par
par
Main Riffpar
|---------------------------------|--|par
|---------------------------------|--|par
|---------------------------------|--|par
|-----9/10----9/10----9/10---109-|-|par
|-----7/8-----7/8-----7/8-----87-|-|par
|-0-0-----0-0-----0-0-------------|--|par
par
tabbed by Rebel Xpar
Ramms+ein tabs: http://www.geocities.com/SunsetStrip/Pit/2594/index.htmlpar
par
Seemanpar
par
Drop D tuningpar
|-e-|par
|-B-|par
|-G-|par
|-D-|par
|-A-|par
|-D-|par
par
Acoustic Partpar
|----------------------------------|---------------------------------|-|par
|----------------------------------|---------------------------------|-|par
|----------------------------------|---------------------------------|-|par
|-----11-------9-------7-------6---|-----2-------2-------4-------4---|-|par
|---0----0---0---0---0---0---0---0-|---2---2---2---2---2---2---2---2-|-|par
|-0--------0-------0-------0-------|-2-------2-------2-------2-------|-|par
par
|---------------------------------|---------------------------------|-|par
|---------------------------------|---------------------------------|-|par
|---------------------------------|---------------------------------|-|par
|-----7-------6-------4-------2---|-----0-------0-------2-------4---|-|par
|---7---7---7---7---7---7---5---5-|---2---2---2---2---2---2---2---2-|-|par
|-7-------7-------7-------7-------|-2-------2-------2-------2-------|-|par
par
Heavy Partpar
|--------------------------------------------------------|-|par
|--------------------------------------------------------|-|par
|--------------------------------------------------------|-|par
|-2//////////--------------------------------------------|-|par
|-0//////////-2////////////-0///////////-2//////////////-|-|par
|-------------2////////////-0///////////-2//////////////-|-|par
par
tabbed by Rebel Xpar
Ramms+ein tabs: http://www.geocities.com/SunsetStrip/Pit/2594/index.htmlpar
par
Sehnsuchtpar
par
Standard Tuningpar
|-e-|par
|-B-|par
|-G-|par
|-D-|par
|-A-|par
|-E-|par
par
Main Riff:par
par
|----------------------------------------|-|par
|----------------------------------------|-|par
|-------9-8---10-8---12-----9/10-X-X-9-7-|-|par
|-------9-8---10-8---12-----9/10-X-X-9-7-|-|par
|-------7-6----8-7---10-----7/8--X-X-7-5-|-|par
|-0-0-0-----0------0----0-0--------------|-|par
  pm...]    pm     pm   pm.]par
par
par
Sehnsuchtpar
|-------------------------------|-|par
|-------------------------------|-|par
|-9-----9-----9---9-----9-------|-|par
|-9-----9-----9---9-----9-------|-|par
|-7-----7-----7---7-----7-5-4-3-|-|par
|---0-0---0-0---0---0-0---3-2-1-|-|par
    pm.]  pm.]  pm  pm.]  pm...]par
par
Fillpar
|---------------------------------------|-|par
|---------------------------------------|-|par
|-9-------5--------7--------------------|-|par
|-9-------5--------7----------7---------|-|par
|-7-------3--------5----------7---------|-|par
|-----------------------------5---------|-|par
par
Second Choruspar
|------------------------------------------------------|-|par
|------------------------------------------------------|-|par
|---------------------------------5---5-4-2------------|-|par
|-2---------------2---------------5---5-4-2------------|-|par
|-2------5-5-4-3--2------5-5-4-3--3---3-2-0----5-5-4-3-|-|par
|-0------3-3-2-1--0------3-3-2-1---------------3-3-2-1-|-|par
         pm.....]        pm.....]              pm.....]par
par
tabbed by Rebel Xpar
Ramms+ein tabs: http://www.geocities.com/SunsetStrip/Pit/2594/index.htmlpar
par
Spiel mit mirpar
par
Standard tuningpar
|-e-|par
|-B-|par
|-G-|par
|-D-|par
|-A-|par
|-E-|par
par
Versepar
|---------------------------------------------|-|par
|---------------------------------------------|-|par
|--------4------------------------------------|-|par
|--------2------------------------------------|-|par
|-2-2-2----2-2-2--2-2-2--3-3-3--3-3--4-4--4-4-|-|par
|-0-0-0----0-0-0--0-0-0--1-1-1--1-1--2-2--2-2-|-|par
  pm...]   pm................................]par
par
Bridgepar
|------------------------------------------|-|par
|------------------------------------------|-|par
|--------2---------------------------------|-|par
|-2-2-2--2-2-2-2--2-2-2--2-2-3--3-3--------|-|par
|-0-0-0----0-0-0--0-0-0--0-0-1--1-1-5--5-5-|-|par
|-----------------------------------3--3-3-|-|par
  pm...]   pm.............................]par
par
Choruspar
|------------------------------------------------|-|par
|------------------------------------------------|-|par
|------------------------------------------------|-|par
|-4-4-4----------------2-2-2--2-2----------------|-|par
|-2-2-2--2-2-2--2-2-2--0-0-0--0-0--3--3-3-2--2-2-|-|par
|--------0-0-0--0-0-0--------------1--1-1-0--0-0-|-|par
par
(not much of a)par
Solopar
|-------------------------------|-|par
|-12-0-12-0-12-0-12-0-...etc...-|-|par
|-------------------------------|-|par
|-------------------------------|-|par
|-------------------------------|-|par
|-------------------------------|-|par
par
tabbed by Rebel Xpar
Ramms+ein tabs: http://www.geocities.com/SunsetStrip/Pit/2594/index.htmlpar
par
Tierpar
par
Drop D Tuningpar
|-e-|par
|-B-|par
|-G-|par
|-D-|par
|-A-|par
|-D-|par
 par
par
chords used:par
  G     A#    C     Dpar
|-5-| |-1-| |-0-| |-3-|-|par
|-5-| |-3-| |-1-| |-2-|-|par
|-0-| |-3-| |-0-| |-3-|-|par
|-0-| |-3-| |-2-| |-0-|-|par
|-5-| |-1-| |-3-| |-0-|-|par
|-5-| |---| |---| |-0-|-|par
par
par
Acoustic Intro/outro:par
G A# C D     par
G A# Cpar
par
Main Riffpar
|----------------------------------------------------------|--|par
|----------------------------------------------------------|--|par
|-----------------8-7-5/7---------------------8-10-87-----|-|par
|-----------------8-7-5/7---------------------8-10-87-----|-|par
|-3h5-----3h5-----6-5-3/5-----3h5-----3h5-----6--8-65-----|-|par
|-----0-0-----0-0---------0-0-----0-0-----0-0----------0-0-|--|par
      pm.]    pm.]        pm.]    pm.]    pm.]         pm.]par
par
par
Choruspar
|-----------------|-----------------|-----------------------|-----------------|-|par
|-----------------|-----------------|-----------------------|-----------------|-|par
|-----------------|-----------------|-----------------------|-----------------|-|par
|-----------------|-----------------|-----------------------|-----------------|-|par
|-3h5-5-5-3h5-5-5-|-5h8-8-8-5h8-8-8-|-8h10-10-10-8h10-10-10-|-0h3-3-3-0h3-3-3-|-|par
|-3h5-5-5-3h5-5-5-|-5h8-8-8-5h8-8-8-|-8h10-10-10-8h10-10-10-|-0h3-3-3-0h3-3-3-|-|par
      pm.]    pm.]      pm.]    pm.]       pm...]     pm...]      pm.]    pm.]par
par
Keyboard thingypar
|------5-----1-----3-------|-|par
|-3------------------------|-|par
|--------------------------|-|par
|--------------------------|-|par
|--------------------------|-|par
|--------------------------|-|par
par
tabbed by Rebel Xpar
Ramms+ein tabs: http://www.geocities.com/SunsetStrip/Pit/2594/index.htmlpar
par
WeiBes Fleischpar
par
Drop D Tuningpar
|-e-|par
|-B-|par
|-G-|par
|-D-|par
|-A-|par
|-D-|par
par
Main Guitar Partpar
             4xpar
||-----------||--------|-|par
||*---------*||--------|-|par
||-----------||-4^bend-|-|par
||-----------||--------|-|par
||*-----3/4-*||--------|-|par
||--0-0-3/4--||--------|-|par
    pm.]par
par
I'm not sure about this partpar
Choruspar
|----------------------|-|par
|----------------------|-|par
|----------------------|-|par
|-1-----6-5-3--------5-|-|par
|-1-----6-5-3------3-5-|-|par
|-1-----6-5-3------3-5-|-|par
                  pmpar
par
...solo coming soon...par
par
tabbed by Rebel Xpar
Ramms+ein tabs: http://www.geocities.com/SunsetStrip/Pit/2594/index.htmlpar
par
Wollt ihr das Bett in Flammen sehenpar
par
Drop D Tuningpar
|-e-|par
|-B-|par
|-G-|par
|-D-|par
|-A-|par
|-D-|par
par
par
Main Guitar Partpar
|-----------------|-|par
|-----------------|-|par
|-5-7---8---7-----|-|par
|-5-7---8---7-----|-|par
|-3-5---6---5-----|-|par
|-----0---0---0-0-|-|par
      pm  pm  pm.]par
par
par
Second Guitar Partpar
|-------------------|-|par
|-------------------|-|par
|-------------------|-|par
|---------3-0---0---|-|par
|---------3-0---0---|-|par
|-7-7-6-5-3-0---0---|-|par
Sex ist eine Schlact...par
par
par
Third Verse:par
|-------------|-|par
|-------------|-|par
|-5-7---------|-|par
|-5-7---------|-|par
|-3-5---------|-|par
|-------------|-|par
par
tabbed by Rebel Xpar
Ramms+ein tabs: http://www.geocities.com/SunsetStrip/Pit/2594/index.htmlpar
par
pardf1par
}


Текст, аккорды и табулатура для песни "Rammstein s", исполняет "Rammstein".
Используемые в песне аккорды можно найти в разделе Как брать аккорды. Аккорды для шестиструнной гитары. Другие песни можно найти на нашем сайте, воспользовавшись алфавитным указателем вверху страницы.


 
Ошибка в тексте? Выделите ошибку и нажмите Ctrl+Enter