Intro a (four times)
4|-----4h5-----4h5-----4h5--5h4-|
5|-----2h3-----2h3-----2h3--3h2-|
6|-0-0-----0-0-----0-0----------|

Rammstein
Ein Mensch brennt
Rammstein
Fleischgeruch liegt in der Luft
Rammstein
ein Kind stirbt
Rammstein
die Sonne scheint
Intro a 
4|-----4h5-----4h5-----4h5--5h4-|
5|-----2h3-----2h3-----2h3--3h2-|
6|-0-0-----0-0-----0-0----------|

в конце intro a (two times0 4------|
                            5|-5-2---------5-2-|
                            6|-3-0--000000-3-0-|
Intro a
Rammstein
ein Flammenmeer
Rammstein
Blut gerinnt auf dem Asphalt
Rammstein
Mutter schreien
Rammstein
die Sonne scheint

Rammstein
ein Massengrab
Rammstein
kein Entrinnen
Rammstein
kein Vogel singt mehr
Rammstein
die Sonne scheint

Solo 
1|-7-9-10-9-7-9-10-9-7-9-10-9-7-9-7-9-|-7-9-10-9-7-9-10-9-7-9-10-9-7-9-7-9-|-
-1|-7-9-10-9-7-9-10-9-7-9-10-9-7-9-7-9-|-7-9-10-9-7-9-10-9-2-3-5-3-2-2h3-|
Rammstein


Текст, аккорды и табулатура для песни "Rammstein", исполняет "Rammstein".
Используемые в песне аккорды можно найти в разделе Как брать аккорды. Аккорды для шестиструнной гитары. Другие песни можно найти на нашем сайте, воспользовавшись алфавитным указателем вверху страницы.


 
Ошибка в тексте? Выделите ошибку и нажмите Ctrl+Enter