Вааще,песня - ну просто улет!!!!
Ну кто не слушал ее, то у меня слов нет!!! 
А играется просто!

Er ist fromm und sehr sensibel
an seiner Wand ein Bild des Herrn
er wischt die Flecken von der Bibel
das Abendmahl verteilt er gern
4|--5-5-2--3-3-2--5-5-2--3-3-2--5-5-2--3-3-2--5-5-2--3-3-2--5-5-2--3-3-2--5-5-|-
5|--5-5-2--3-3-2--5-5-2--3-3-2--5-5-2--3-3-2--5-5-2--3-3-2--5-5-2--3-3-2--5-5-|-
6|--3-3-0--1-1-0--3-3-0--1-1-0--3-3-0--1-1-0--3-3-0--1-1-0--3-3-0--1-1-0--3-3-|-

-4|-2------2------2-------2------3-3-2------2------2-------2------5-5-|
-5|-2------2------2-------2------3-3-2------2------2-------2------5-5-|
-6|-0-0000-0-0000-0--0000-0-0000-1-1-0-0000-0-0000-0--0000-0-0000-3-3-|

Er liebt die Knaben aus dem Chor
sie halten ihre Seelen rein
doch Sorge macht ihm der Tenor
so muss er ihm am nachsten sein
auf seinem Nachttisch still und stumm
ein Bild des Herrn
er dreht es langsam um
4|-2--3-3-2--5-5-2--3-3-2--5-5-2--3-3-2--5-5-2--3-3-2--5-5--|
5|-2--3-3-2--5-5-2--3-3-2--5-5-2--3-3-2--5-5-2--3-3-2--5-5--|
6|-0--1-1-0--3-3-0--1-1-0--3-3-0--1-1-0--3-3-0--1-1-0--3-3--|

-4|-2------2------2-------2------3-3-2------2------2-------2------5-5-|-(1 time)
-5|-2------2------2-------2------3-3-2------2------2-------2------5-5-|-
-6|-0-0000-0-0000-0--0000-0-0000-1-1-0-0000-0-0000-0--0000-0-0000-3-3-|-

Wenn die Turmuhr zweimal schlagt
hallelujah
faltet er die Hande zum Gebet
hallelujah
er ist ohne Weib geblieben
hallelujah
so muss er seinen Nachsten lieben
hallelujah
-4|-2---5-5-10-10--7---7-7-10-10--5---5-5-9-9--3---3-3-5-5--|-(2 times)
-5|-2---5-5-10-10--7---7-7-10-10--5---5-5-9-9--3---3-3-5-5--|-
-6|-0---3-3-8--8---5---5-5-8--8---3---3-3-7-7--1---1-1-3-3--|-

Der junge Mann darf bei ihm bleiben
die Sunde nistet uberm Bein
so hilft er gern sie auszutreiben
bei Musik und Kerzenschein
-4|-5-5-2---10-10--7----10-10--5----9-9--3---5-5-2--|-
-5|-5-5-2---10-10--7----10-10--5----9-9--3---5-5-2--|-
-6|-3-3-0---8--8---5----8--8---3----7-7--1---3-3-0--|-

Wenn die Turmuhr zweimal schlagt
hallelujah
faltet er die Hande zum Gebet
hallelujah
er ist ohne Weib geblieben
hallelujah
so muss er seinen Nachsten lieben
hallelujah
Wenn die Turmuhr zweimal schlagt
hallelujah
nimmt er den Jungen ins Gebet
hallelujah
er ist der wahre Christ
hallelujah
-4|--5-5-10-10--7---7-7-10-10--5---5-5-9-9--3---3-3-5-5---|(4 times)
-5|--5-5-10-10--7---7-7-10-10--5---5-5-9-9--3---3-3-5-5---|
-6|--3-3-8--8---5---5-5-8--8---3---3-3-7-7--1---1-1-3-3---|

dreht es langsam um.....
dreht es um
4|-2------2------2-------2------3-3-2------2------2-------2------5-5-2|
5|-2------2------2-------2------3-3-2------2------2-------2------5-5-2|
6|-0-0000-0-0000-0--0000-0-0000-1-1-0-0000-0-0000-0--0000-0-0000-3-3-0|


Текст, аккорды и табулатура для песни "Hallelujah", исполняет "Rammstein".
Используемые в песне аккорды можно найти в разделе Как брать аккорды. Аккорды для шестиструнной гитары. Другие песни можно найти на нашем сайте, воспользовавшись алфавитным указателем вверху страницы.


 
Ошибка в тексте? Выделите ошибку и нажмите Ctrl+Enter