RAMMSTEIN - DAS MODELL
Tabbed by: Mattias Jaselius

Tuning: Drop D

MAIN RIFF:

E|------------------------------------------------|
B|------------------------------------------------|
G|------------------------------------------------|
D|--xxxx-5-xxxx-8-xx-8-xxxx-0-xxxx-3-xx-3---------|
A|--xxxx-5-xxxx-8-xx-8-xxxx-0-xxxx-3-xx-3---------|
D|--xxxx-5-xxxx-8-xx-8-xxxx-0-xxxx-3-xx-3---------|

RIFF 2:

E|--------------------------------------------------------|
B|--------------------------------------------------------|
G|--------------------------------------------------------|
D|--/8--/7--/3--/3--/8--/7--/12---------------------------|
A|--/8--/7--/3--/3--/8--/7--/12--99999-1010-1212121212----|
D|--/8--/7--/3--/3--/8--/7--/12---------------------------|

RIFF 3: Synthesizer arranged for guitar

E|----------------------|
B|--8--11-10-8-10--6-3--|
G|----------------------|
D|----------------------|
A|----------------------|
D|----------------------|

RIFF 4: Synthesizer arranged for guitar (Not sure if this is correct!)

E|------------------------------|---------------------------1---|
B|--3-------3---3-4-3-------3-1-|-3-------3---3-4-3-------3-----|
G|----3-0-3---3-------2-0-2-----|---3-0-3---3-------2-0-2-------|
D|------------------------------|-------------------------------|
A|------------------------------|-------------------------------|
D|------------------------------|-------------------------------|

(Continued)

E|------------------------------------------------------------------|
B|------------------------------------------------------------------|
G|--3-----2----0------------3-----2-----7---------------------------|
D|--------------3---------------------------------------------------|
A|-------------------------------------------99999-1010-1212121212--|
D|------------------------------------------------------------------|

Thatґs it! Please send some comments or corrections!!


Текст, аккорды и табулатура для песни "Das Modell", исполняет "Rammstein".
Используемые в песне аккорды можно найти в разделе Как брать аккорды. Аккорды для шестиструнной гитары. Другие песни можно найти на нашем сайте, воспользовавшись алфавитным указателем вверху страницы.


 
Ошибка в тексте? Выделите ошибку и нажмите Ctrl+Enter